  0
SECTION
  2
HEADER
  9
$ACADVER
  1
AC1012
  9
$DWGCODEPAGE
  3
ansi_932
  9
$INSBASE
 10
0.0
 20
0.0
 30
0.0
  9
$EXTMIN
 10
0.0
 20
0.0
 30
0.0
  9
$EXTMAX
 10
594.0
 20
420.0
 30
0.0
  9
$LIMMIN
 10
0.0
 20
0.0
  9
$LIMMAX
 10
594.0
 20
420.0
  9
$ORTHOMODE
 70
     0
  9
$REGENMODE
 70
     1
  9
$FILLMODE
 70
     1
  9
$QTEXTMODE
 70
     0
  9
$MIRRTEXT
 70
     1
  9
$DRAGMODE
 70
     2
  9
$LTSCALE
 40
1.0
  9
$OSMODE
 70
    37
  9
$ATTMODE
 70
     1
  9
$TEXTSIZE
 40
2.5
  9
$TRACEWID
 40
1.0
  9
$TEXTSTYLE
  7
STANDARD
  9
$CLAYER
  8
0
  9
$CELTYPE
  6
BYLAYER
  9
$CECOLOR
 62
   256
  9
$CELTSCALE
 40
1.0
  9
$DELOBJ
 70
     1
  9
$DISPSILH
 70
     0
  9
$DIMSCALE
 40
1.0
  9
$DIMASZ
 40
2.5
  9
$DIMEXO
 40
0.625
  9
$DIMDLI
 40
3.75
  9
$DIMRND
 40
0.0
  9
$DIMDLE
 40
0.0
  9
$DIMEXE
 40
1.25
  9
$DIMTP
 40
0.0
  9
$DIMTM
 40
0.0
  9
$DIMTXT
 40
2.5
  9
$DIMCEN
 40
2.5
  9
$DIMTSZ
 40
0.0
  9
$DIMTOL
 70
     0
  9
$DIMLIM
 70
     0
  9
$DIMTIH
 70
     0
  9
$DIMTOH
 70
     0
  9
$DIMSE1
 70
     0
  9
$DIMSE2
 70
     0
  9
$DIMTAD
 70
     1
  9
$DIMZIN
 70
     8
  9
$DIMBLK
  1

  9
$DIMASO
 70
     1
  9
$DIMSHO
 70
     1
  9
$DIMPOST
  1

  9
$DIMAPOST
  1

  9
$DIMALT
 70
     0
  9
$DIMALTD
 70
     3
  9
$DIMALTF
 40
0.0393700787
  9
$DIMLFAC
 40
1.0
  9
$DIMTOFL
 70
     1
  9
$DIMTVP
 40
0.0
  9
$DIMTIX
 70
     0
  9
$DIMSOXD
 70
     0
  9
$DIMSAH
 70
     0
  9
$DIMBLK1
  1

  9
$DIMBLK2
  1

  9
$DIMSTYLE
  2
ISO-25
  9
$DIMCLRD
 70
     0
  9
$DIMCLRE
 70
     0
  9
$DIMCLRT
 70
     0
  9
$DIMTFAC
 40
1.0
  9
$DIMGAP
 40
0.625
  9
$DIMJUST
 70
     0
  9
$DIMSD1
 70
     0
  9
$DIMSD2
 70
     0
  9
$DIMTOLJ
 70
     0
  9
$DIMTZIN
 70
     8
  9
$DIMALTZ
 70
     0
  9
$DIMALTTZ
 70
     0
  9
$DIMFIT
 70
     3
  9
$DIMUPT
 70
     0
  9
$DIMUNIT
 70
     2
  9
$DIMDEC
 70
     2
  9
$DIMTDEC
 70
     2
  9
$DIMALTU
 70
     2
  9
$DIMALTTD
 70
     3
  9
$DIMTXSTY
  7
STANDARD
  9
$DIMAUNIT
 70
     0
  9
$LUNITS
 70
     2
  9
$LUPREC
 70
     4
  9
$SKETCHINC
 40
1.0
  9
$FILLETRAD
 40
10.0
  9
$AUNITS
 70
     0
  9
$AUPREC
 70
     0
  9
$MENU
  1
.
  9
$ELEVATION
 40
0.0
  9
$PELEVATION
 40
0.0
  9
$THICKNESS
 40
0.0
  9
$LIMCHECK
 70
     0
  9
$CHAMFERA
 40
10.0
  9
$CHAMFERB
 40
10.0
  9
$CHAMFERC
 40
20.0
  9
$CHAMFERD
 40
0.0
  9
$SKPOLY
 70
     0
  9
$TDCREATE
 40
2458173.810321481
  9
$TDUPDATE
 40
2458173.810321493
  9
$TDINDWG
 40
0.0000000116
  9
$TDUSRTIMER
 40
0.0000000116
  9
$USRTIMER
 70
     1
  9
$ANGBASE
 50
0.0
  9
$ANGDIR
 70
     0
  9
$PDMODE
 70
     0
  9
$PDSIZE
 40
0.0
  9
$PLINEWID
 40
0.0
  9
$COORDS
 70
     1
  9
$SPLFRAME
 70
     0
  9
$SPLINETYPE
 70
     6
  9
$SPLINESEGS
 70
     8
  9
$ATTDIA
 70
     0
  9
$ATTREQ
 70
     1
  9
$HANDLING
 70
     1
  9
$HANDSEED
  5
67B
  9
$SURFTAB1
 70
     6
  9
$SURFTAB2
 70
     6
  9
$SURFTYPE
 70
     6
  9
$SURFU
 70
     6
  9
$SURFV
 70
     6
  9
$UCSNAME
  2

  9
$UCSORG
 10
0.0
 20
0.0
 30
0.0
  9
$UCSXDIR
 10
1.0
 20
0.0
 30
0.0
  9
$UCSYDIR
 10
0.0
 20
1.0
 30
0.0
  9
$PUCSNAME
  2

  9
$PUCSORG
 10
0.0
 20
0.0
 30
0.0
  9
$PUCSXDIR
 10
1.0
 20
0.0
 30
0.0
  9
$PUCSYDIR
 10
0.0
 20
1.0
 30
0.0
  9
$USERI1
 70
     0
  9
$USERI2
 70
     0
  9
$USERI3
 70
     0
  9
$USERI4
 70
     0
  9
$USERI5
 70
     0
  9
$USERR1
 40
0.0
  9
$USERR2
 40
0.0
  9
$USERR3
 40
0.0
  9
$USERR4
 40
0.0
  9
$USERR5
 40
0.0
  9
$WORLDVIEW
 70
     1
  9
$SHADEDGE
 70
     3
  9
$SHADEDIF
 70
    70
  9
$TILEMODE
 70
     1
  9
$MAXACTVP
 70
    64
  9
$PINSBASE
 10
0.0
 20
0.0
 30
0.0
  9
$PLIMCHECK
 70
     0
  9
$PEXTMIN
 10
0.0
 20
0.0
 30
0.0
  9
$PEXTMAX
 10
594.0
 20
420.0
 30
0.0
  9
$PLIMMIN
 10
0.0
 20
0.0
  9
$PLIMMAX
 10
594.0
 20
420.0
  9
$UNITMODE
 70
     0
  9
$VISRETAIN
 70
     1
  9
$PLINEGEN
 70
     0
  9
$PSLTSCALE
 70
     1
  9
$TREEDEPTH
 70
  3020
  9
$PICKSTYLE
 70
     1
  9
$CMLSTYLE
  2
STANDARD
  9
$CMLJUST
 70
     0
  9
$CMLSCALE
 40
20.0
  9
$SAVEIMAGES
 70
     1
  0
ENDSEC
  0
SECTION
  2
CLASSES
  0
CLASS
  1
ACDBDICTIONARYWDFLT
  2
AcDbDictionaryWithDefault
  3
ObjectDBX Classes
 90
    32768
280
     0
281
     0
  0
CLASS
  1
VISUALSTYLE
  2
AcDbVisualStyle
  3
ObjectDBX Classes
 90
     4095
280
     0
281
     0
  0
CLASS
  1
SCALE
  2
AcDbScale
  3
ObjectDBX Classes
 90
     1153
280
     0
281
     0
  0
CLASS
  1
DICTIONARYVAR
  2
AcDbDictionaryVar
  3
ObjectDBX Classes
 90
        0
280
     0
281
     0
  0
CLASS
  1
XRECORD
  2
AcDbXrecord
  3
AutoCAD 2000
 90
    32768
280
     0
281
     0
  0
CLASS
  1
LWPOLYLINE
  2
AcDbPolyline
  3
AutoCAD 2000
 90
    32768
280
     0
281
     1
  0
CLASS
  1
HATCH
  2
AcDbHatch
  3
AutoCAD 2000
 90
    32768
280
     0
281
     1
  0
CLASS
  1
ACDBPLACEHOLDER
  2
AcDbPlaceHolder
  3
ObjectDBX Classes
 90
        0
280
     0
281
     0
  0
CLASS
  1
LAYOUT
  2
AcDbLayout
  3
ObjectDBX Classes
 90
        0
280
     0
281
     0
  0
ENDSEC
  0
SECTION
  2
TABLES
  0
TABLE
  2
VPORT
  5
8
330
0
100
AcDbSymbolTable
 70
     1
  0
VPORT
  5
29
330
8
100
AcDbSymbolTableRecord
100
AcDbViewportTableRecord
  2
*ACTIVE
 70
     0
 10
0.0
 20
0.0
 11
1.0
 21
1.0
 12
344.1869158879
 22
148.5
 13
0.0
 23
0.0
 14
10.0
 24
10.0
 15
10.0
 25
10.0
 16
0.0
 26
0.0
 36
1.0
 17
0.0
 27
0.0
 37
0.0
 40
297.0
 41
1.9729729729
 42
50.0
 43
0.0
 44
0.0
 50
0.0
 51
0.0
 71
     0
 72
   100
 73
     1
 74
     3
 75
     0
 76
     0
 77
     0
 78
     0
  0
ENDTAB
  0
TABLE
  2
LTYPE
  5
5
330
0
100
AcDbSymbolTable
 70
     1
  0
LTYPE
  5
14
330
5
100
AcDbSymbolTableRecord
100
AcDbLinetypeTableRecord
  2
BYBLOCK
 70
     0
  3

 72
    65
 73
     0
 40
0.0
  0
LTYPE
  5
15
330
5
100
AcDbSymbolTableRecord
100
AcDbLinetypeTableRecord
  2
BYLAYER
 70
     0
  3

 72
    65
 73
     0
 40
0.0
  0
LTYPE
  5
16
330
5
100
AcDbSymbolTableRecord
100
AcDbLinetypeTableRecord
  2
CONTINUOUS
 70
     0
  3
Solid line
 72
    65
 73
     0
 40
0.0
  0
ENDTAB
  0
TABLE
  2
LAYER
  5
2
330
0
100
AcDbSymbolTable
 70
    44
  0
LAYER
  5
10
330
2
100
AcDbSymbolTableRecord
100
AcDbLayerTableRecord
  2
0
 70
     0
 62
     7
  6
CONTINUOUS
  0
LAYER
  5
5F
330
2
100
AcDbSymbolTableRecord
100
AcDbLayerTableRecord
  2
DEFAULT
 70
     0
 62
     7
  6
CONTINUOUS
  0
LAYER
  5
64
330
2
100
AcDbSymbolTableRecord
100
AcDbLayerTableRecord
  2
HIRAZAGANE_M8_00
 70
     0
 62
     7
  6
CONTINUOUS
  0
LAYER
  5
67
330
2
100
AcDbSymbolTableRecord
100
AcDbLayerTableRecord
  2
BANEZAGANE_M8_00
 70
     0
 62
     7
  6
CONTINUOUS
  0
LAYER
  5
6B
330
2
100
AcDbSymbolTableRecord
100
AcDbLayerTableRecord
  2
NABEKONEJI_M8_00
 70
     0
 62
     7
  6
CONTINUOUS
  0
LAYER
  5
B3
330
2
100
AcDbSymbolTableRecord
100
AcDbLayerTableRecord
  2
TANAITA_BLACKET_
 70
     0
 62
     7
  6
CONTINUOUS
  0
LAYER
  5
DB
330
2
100
AcDbSymbolTableRecord
100
AcDbLayerTableRecord
  2
TANAITA_HONNTAI_
 70
     0
 62
     7
  6
CONTINUOUS
  0
LAYER
  5
100
330
2
100
AcDbSymbolTableRecord
100
AcDbLayerTableRecord
  2
SITYUU_LEFT_001_
 70
     0
 62
     7
  6
CONTINUOUS
  0
LAYER
  5
105
330
2
100
AcDbSymbolTableRecord
100
AcDbLayerTableRecord
  2
SITYUU_RIGHT_001
 70
     0
 62
     7
  6
CONTINUOUS
  0
LAYER
  5
10A
330
2
100
AcDbSymbolTableRecord
100
AcDbLayerTableRecord
  2
SITYUU_COVER_LEF
 70
     0
 62
     7
  6
CONTINUOUS
  0
LAYER
  5
11E
330
2
100
AcDbSymbolTableRecord
100
AcDbLayerTableRecord
  2
SITYUU_RENKETSU_
 70
     0
 62
     7
  6
CONTINUOUS
  0
LAYER
  5
123
330
2
100
AcDbSymbolTableRecord
100
AcDbLayerTableRecord
  2
ADJUSTER_001_SEP
 70
     0
 62
     7
  6
CONTINUOUS
  0
LAYER
  5
19C
330
2
100
AcDbSymbolTableRecord
100
AcDbLayerTableRecord
  2
STOPPER_FRONT_PE
 70
     0
 62
     7
  6
CONTINUOUS
  0
LAYER
  5
1AE
330
2
100
AcDbSymbolTableRecord
100
AcDbLayerTableRecord
  2
STOPPER_DKARU_00
 70
     0
 62
     7
  6
CONTINUOUS
  0
LAYER
  5
1B3
330
2
100
AcDbSymbolTableRecord
100
AcDbLayerTableRecord
  2
KAITENNJIKU_001_
 70
     0
 62
     7
  6
CONTINUOUS
  0
LAYER
  5
1C0
330
2
100
AcDbSymbolTableRecord
100
AcDbLayerTableRecord
  2
RIBETTO_001_SEP-
 70
     0
 62
     7
  6
CONTINUOUS
  0
LAYER
  5
221
330
2
100
AcDbSymbolTableRecord
100
AcDbLayerTableRecord
  2
SITYUU_COVER_RIG
 70
     0
 62
     7
  6
CONTINUOUS
  0
LAYER
  5
238
330
2
100
AcDbSymbolTableRecord
100
AcDbLayerTableRecord
  2
STOPPER_FTONT_TI
 70
     0
 62
     7
  6
CONTINUOUS
  0
LAYER
  5
24A
330
2
100
AcDbSymbolTableRecord
100
AcDbLayerTableRecord
  2
BASE_PANEL_001_S
 70
     0
 62
     7
  6
CONTINUOUS
  0
LAYER
  5
24F
330
2
100
AcDbSymbolTableRecord
100
AcDbLayerTableRecord
  2
HIRAZAGANE_001_S
 70
     0
 62
     7
  6
CONTINUOUS
  0
LAYER
  5
253
330
2
100
AcDbSymbolTableRecord
100
AcDbLayerTableRecord
  2
BANE_M6_001_SEP-
 70
     0
 62
     7
  6
CONTINUOUS
  0
LAYER
  5
257
330
2
100
AcDbSymbolTableRecord
100
AcDbLayerTableRecord
  2
ROKKAKU_M6_15_00
 70
     0
 62
     7
  6
CONTINUOUS
  0
LAYER
  5
26A
330
2
100
AcDbSymbolTableRecord
100
AcDbLayerTableRecord
  2
STOPPER_BACK_LEF
 70
     0
 62
     7
  6
CONTINUOUS
  0
LAYER
  5
26E
330
2
100
AcDbSymbolTableRecord
100
AcDbLayerTableRecord
  2
TENNTOUBOUSHIKAN
 70
     0
 62
     7
  6
CONTINUOUS
  0
LAYER
  5
270
330
2
100
AcDbSymbolTableRecord
100
AcDbLayerTableRecord
  2
CASTER_BACK_001_
 70
     0
 62
     7
  6
CONTINUOUS
  0
LAYER
  5
2AB
330
2
100
AcDbSymbolTableRecord
100
AcDbLayerTableRecord
  2
CASTER_FRONT_STO
 70
     0
 62
     7
  6
CONTINUOUS
  0
LAYER
  5
312
330
2
100
AcDbSymbolTableRecord
100
AcDbLayerTableRecord
  2
DV1_ﾃﾞﾌｫﾙﾄ
 70
     0
 62
     7
  6
CONTINUOUS
  0
LAYER
  5
31F
330
2
100
AcDbSymbolTableRecord
100
AcDbLayerTableRecord
  2
DV1_AUTO_-_HIDE
 70
     1
 62
    -7
  6
CONTINUOUS
  0
LAYER
  5
35B
330
2
100
AcDbSymbolTableRecord
100
AcDbLayerTableRecord
  2
UKEKANAGU_001_SE
 70
     0
 62
     7
  6
CONTINUOUS
  0
LAYER
  5
376
330
2
100
AcDbSymbolTableRecord
100
AcDbLayerTableRecord
  2
KOTEI_RIGHT_001_
 70
     0
 62
     7
  6
CONTINUOUS
  0
LAYER
  5
3F3
330
2
100
AcDbSymbolTableRecord
100
AcDbLayerTableRecord
  2
UEHUTA_RIGHT_001
 70
     0
 62
     7
  6
CONTINUOUS
  0
LAYER
  5
460
330
2
100
AcDbSymbolTableRecord
100
AcDbLayerTableRecord
  2
TENTOUBOUSHIKANA
 70
     0
 62
     7
  6
CONTINUOUS
  0
LAYER
  5
469
330
2
100
AcDbSymbolTableRecord
100
AcDbLayerTableRecord
  2
UNATTO_001_SEP-0
 70
     0
 62
     7
  6
CONTINUOUS
  0
LAYER
  5
487
330
2
100
AcDbSymbolTableRecord
100
AcDbLayerTableRecord
  2
SARABANE_001_SEP
 70
     0
 62
     7
  6
CONTINUOUS
  0
LAYER
  5
48D
330
2
100
AcDbSymbolTableRecord
100
AcDbLayerTableRecord
  2
ROKKAKU_ANATSUKI
 70
     0
 62
     7
  6
CONTINUOUS
  0
LAYER
  5
49A
330
2
100
AcDbSymbolTableRecord
100
AcDbLayerTableRecord
  2
DEKARU_LOGO_SYOU
 70
     0
 62
     7
  6
CONTINUOUS
  0
LAYER
  5
4A0
330
2
100
AcDbSymbolTableRecord
100
AcDbLayerTableRecord
  2
CC_001_SEP-00047
 70
     0
 62
     7
  6
CONTINUOUS
  0
LAYER
  5
4B9
330
2
100
AcDbSymbolTableRecord
100
AcDbLayerTableRecord
  2
BASE_SIDE_COVER_
 70
     0
 62
     7
  6
CONTINUOUS
  0
LAYER
  5
502
330
2
100
AcDbSymbolTableRecord
100
AcDbLayerTableRecord
  2
BLACKET_RIGHT_00
 70
     0
 62
     7
  6
CONTINUOUS
  0
LAYER
  5
513
330
2
100
AcDbSymbolTableRecord
100
AcDbLayerTableRecord
  2
HOKYOUKANAGU_LEF
 70
     0
 62
     7
  6
CONTINUOUS
  0
LAYER
  5
51F
330
2
100
AcDbSymbolTableRecord
100
AcDbLayerTableRecord
  2
KURANPU_001_SEP-
 70
     0
 62
     7
  6
CONTINUOUS
  0
LAYER
  5
55A
330
2
100
AcDbSymbolTableRecord
100
AcDbLayerTableRecord
  2
DV2_ﾃﾞﾌｫﾙﾄ
 70
     0
 62
     7
  6
CONTINUOUS
  0
LAYER
  5
562
330
2
100
AcDbSymbolTableRecord
100
AcDbLayerTableRecord
  2
DV2_AUTO_-_HIDE
 70
     1
 62
    -7
  6
CONTINUOUS
  0
LAYER
  5
58D
330
2
100
AcDbSymbolTableRecord
100
AcDbLayerTableRecord
  2
DV2_DEFAULT
 70
     0
 62
     7
  6
CONTINUOUS
  0
ENDTAB
  0
TABLE
  2
STYLE
  5
3
330
0
100
AcDbSymbolTable
 70
     2
  0
STYLE
  5
11
330
3
100
AcDbSymbolTableRecord
100
AcDbTextStyleTableRecord
  2
STANDARD
 70
     0
 40
0.0
 41
1.0
 50
0.0
 71
     0
 42
2.5
  3
txt
  4

  0
STYLE
  5
5D
330
3
100
AcDbSymbolTableRecord
100
AcDbTextStyleTableRecord
  2
SEACAD_SEANSI_TTF
 70
     0
 40
0.0
 41
1.0
 50
0.0
 71
     0
 42
0.2
  3
seansi.ttf
  4

  0
ENDTAB
  0
TABLE
  2
VIEW
  5
6
330
0
100
AcDbSymbolTable
 70
     0
  0
ENDTAB
  0
TABLE
  2
UCS
  5
7
330
0
100
AcDbSymbolTable
 70
     0
  0
ENDTAB
  0
TABLE
  2
APPID
  5
9
330
0
100
AcDbSymbolTable
 70
     1
  0
APPID
  5
12
330
9
100
AcDbSymbolTableRecord
100
AcDbRegAppTableRecord
  2
ACAD
 70
     0
  0
ENDTAB
  0
TABLE
  2
DIMSTYLE
  5
A
330
0
100
AcDbSymbolTable
 70
     1
  0
DIMSTYLE
105
27
330
A
100
AcDbSymbolTableRecord
100
AcDbDimStyleTableRecord
  2
ISO-25
 70
     0
  3

  4

  5

  6

  7

 40
1.0
 41
2.5
 42
0.625
 43
3.75
 44
1.25
 45
0.0
 46
0.0
 47
0.0
 48
0.0
140
2.5
141
2.5
142
0.0
143
0.0393700787
144
1.0
145
0.0
146
1.0
147
0.625
 71
     0
 72
     0
 73
     0
 74
     0
 75
     0
 76
     0
 77
     1
 78
     8
170
     0
171
     3
172
     1
173
     0
174
     0
175
     0
176
     0
177
     0
178
     0
270
     2
271
     2
272
     2
273
     2
274
     3
340
11
275
     0
280
     0
281
     0
282
     0
283
     0
284
     8
285
     0
286
     0
287
     3
288
     0
  0
ENDTAB
  0
TABLE
  2
BLOCK_RECORD
  5
1
330
0
100
AcDbSymbolTable
 70
     9
  0
BLOCK_RECORD
  5
1F
330
1
100
AcDbSymbolTableRecord
100
AcDbBlockTableRecord
  2
*MODEL_SPACE
  0
BLOCK_RECORD
  5
1B
330
1
100
AcDbSymbolTableRecord
100
AcDbBlockTableRecord
  2
*PAPER_SPACE
  0
BLOCK_RECORD
  5
62
330
1
100
AcDbSymbolTableRecord
100
AcDbBlockTableRecord
  2
SE
  0
BLOCK_RECORD
  5
359
330
1
100
AcDbSymbolTableRecord
100
AcDbBlockTableRecord
  2
SE1
  0
BLOCK_RECORD
  5
595
330
1
100
AcDbSymbolTableRecord
100
AcDbBlockTableRecord
  2
GDIMGGROUP
  0
BLOCK_RECORD
  5
59F
330
1
100
AcDbSymbolTableRecord
100
AcDbBlockTableRecord
  2
GDIMGGROUP1
  0
BLOCK_RECORD
  5
5A9
330
1
100
AcDbSymbolTableRecord
100
AcDbBlockTableRecord
  2
GDIMGGROUP2
  0
BLOCK_RECORD
  5
5B3
330
1
100
AcDbSymbolTableRecord
100
AcDbBlockTableRecord
  2
GDIMGGROUP3
  0
BLOCK_RECORD
  5
5BD
330
1
100
AcDbSymbolTableRecord
100
AcDbBlockTableRecord
  2
GDIMGGROUP4
  0
BLOCK_RECORD
  5
5C7
330
1
100
AcDbSymbolTableRecord
100
AcDbBlockTableRecord
  2
GDIMGGROUP5
  0
ENDTAB
  0
ENDSEC
  0
SECTION
  2
BLOCKS
  0
BLOCK
  5
20
330
1F
100
AcDbEntity
  8
0
100
AcDbBlockBegin
  2
*MODEL_SPACE
 70
     0
 10
0.0
 20
0.0
 30
0.0
  3
*MODEL_SPACE
  1

  0
ENDBLK
  5
21
330
1F
100
AcDbEntity
  8
0
100
AcDbBlockEnd
  0
BLOCK
  5
1C
330
1B
100
AcDbEntity
 67
     1
  8
0
100
AcDbBlockBegin
  2
*PAPER_SPACE
 70
     0
 10
0.0
 20
0.0
 30
0.0
  3
*PAPER_SPACE
  1

  0
ENDBLK
  5
1D
330
1B
100
AcDbEntity
 67
     1
  8
0
100
AcDbBlockEnd
  0
BLOCK
  5
357
330
62
100
AcDbEntity
  8
0
100
AcDbBlockBegin
  2
SE
 70
     0
 10
0.0
 20
0.0
 30
0.0
  3
SE
  1

  0
LINE
  5
65
330
62
100
AcDbEntity
  8
HIRAZAGANE_M8_00
  6
CONTINUOUS
 62
     7
100
AcDbLine
 10
222.7732855929
 20
203.6140076722
 30
0.0
 11
222.7732855929
 21
201.8640076722
 31
0.0
  0
LINE
  5
66
330
62
100
AcDbEntity
  8
HIRAZAGANE_M8_00
  6
CONTINUOUS
 62
     7
100
AcDbLine
 10
222.7732855929
 20
201.8640076722
 30
0.0
 11
222.9332855929
 21
201.8640076722
 31
0.0
  0
LINE
  5
68
330
62
100
AcDbEntity
  8
BANEZAGANE_M8_00
  6
CONTINUOUS
 62
     7
100
AcDbLine
 10
222.5732855929
 20
201.9944136233
 30
0.0
 11
222.5732855929
 21
203.5340076722
 31
0.0
  0
LINE
  5
69
330
62
100
AcDbEntity
  8
BANEZAGANE_M8_00
  6
CONTINUOUS
 62
     7
100
AcDbLine
 10
222.7732855929
 20
201.9944136233
 30
0.0
 11
222.5732855929
 21
201.9944136233
 31
0.0
  0
LINE
  5
6A
330
62
100
AcDbEntity
  8
BANEZAGANE_M8_00
  6
CONTINUOUS
 62
     7
100
AcDbLine
 10
222.7732855929
 20
203.5340076722
 30
0.0
 11
222.5732855929
 21
203.5340076722
 31
0.0
  0
LINE
  5
6C
330
62
100
AcDbEntity
  8
NABEKONEJI_M8_00
  6
CONTINUOUS
 62
     7
100
AcDbLine
 10
222.0532855929
 20
202.6890076722
 30
0.0
 11
222.0532855929
 21
202.6003769904
 31
0.0
  0
LINE
  5
6D
330
62
100
AcDbEntity
  8
NABEKONEJI_M8_00
  6
CONTINUOUS
 62
     7
100
AcDbLine
 10
222.0532855929
 20
202.9276383539
 30
0.0
 11
222.0532855929
 21
202.8390076722
 31
0.0
  0
SPLINE
  5
6E
330
62
100
AcDbEntity
  8
NABEKONEJI_M8_00
  6
CONTINUOUS
 62
     7
100
AcDbSpline
210
0.0
220
0.0
230
1.0
 70
     8
 71
     3
 72
    10
 73
     6
 74
     0
 42
0.0000000665637782
 43
0.0000000001
 40
0.0
 40
0.0
 40
0.0
 40
0.0
 40
0.5
 40
0.5
 40
1.0
 40
1.0
 40
1.0
 40
1.0
 10
222.1007947625192
 20
202.6890076721687
 30
0.0
 10
222.0986279527893
 20
202.7139738002895
 30
0.0
 10
222.0975682064135
 20
202.7391783489213
 30
0.0
 10
222.0975830654453
 20
202.789360187791
 30
0.0
 10
222.0986481552627
 20
202.8142743183091
 30
0.0
 10
222.1007947625193
 20
202.8390076721674
 30
0.0
  0
LINE
  5
6F
330
62
100
AcDbEntity
  8
NABEKONEJI_M8_00
  6
CONTINUOUS
 62
     7
100
AcDbLine
 10
222.0532855929
 20
202.6890076722
 30
0.0
 11
222.1007947625
 21
202.6890076722
 31
0.0
  0
LINE
  5
70
330
62
100
AcDbEntity
  8
NABEKONEJI_M8_00
  6
CONTINUOUS
 62
     7
100
AcDbLine
 10
222.1007947625
 20
202.8390076722
 30
0.0
 11
222.0532855929
 21
202.8390076722
 31
0.0
  0
SPLINE
  5
71
330
62
100
AcDbEntity
  8
NABEKONEJI_M8_00
  6
CONTINUOUS
 62
     7
100
AcDbSpline
210
0.0
220
0.0
230
1.0
 70
     8
 71
     3
 72
    15
 73
    11
 74
     0
 42
0.0000000428529178
 43
0.0000000001
 40
0.0
 40
0.0
 40
0.0
 40
0.0
 40
0.5000000000000012
 40
0.5000000000000012
 40
0.5625000000000012
 40
0.5625000000000012
 40
0.6250000000000013
 40
0.7500000000000008
 40
0.7500000000000008
 40
1.0
 40
1.0
 40
1.0
 40
1.0
 10
222.1007947625193
 20
202.3740076721675
 30
0.0
 10
222.0841833077411
 20
202.4108150383989
 30
0.0
 10
222.071955037861
 20
202.4491127997759
 30
0.0
 10
222.0630420885294
 20
202.4938448158621
 30
0.0
 10
222.0622130143981
 20
202.4983401879135
 30
0.0
 10
222.0606207439432
 20
202.5075979796062
 30
0.0
 10
222.0584159965017
 20
202.5214889678527
 30
0.0
 10
222.0567516466252
 20
202.5353926105371
 30
0.0
 10
222.0541155168331
 20
202.5632161137498
 30
0.0
 10
222.0532855928903
 20
202.5817868349743
 30
0.0
 10
222.0532855928903
 20
202.6003769904479
 30
0.0
  0
LINE
  5
72
330
62
100
AcDbEntity
  8
NABEKONEJI_M8_00
  6
CONTINUOUS
 62
     7
100
AcDbLine
 10
222.0975756359
 20
202.3740076722
 30
0.0
 11
222.1007947625
 21
202.3740076722
 31
0.0
  0
LINE
  5
73
330
62
100
AcDbEntity
  8
NABEKONEJI_M8_00
  6
CONTINUOUS
 62
     7
100
AcDbLine
 10
222.0975756359
 20
203.1540076722
 30
0.0
 11
222.1007947625
 21
203.1540076722
 31
0.0
  0
SPLINE
  5
74
330
62
100
AcDbEntity
  8
NABEKONEJI_M8_00
  6
CONTINUOUS
 62
     7
100
AcDbSpline
210
0.0
220
0.0
230
1.0
 70
     8
 71
     3
 72
    12
 73
     8
 74
     0
 42
0.0000000428540101
 43
0.0000000001
 40
0.0
 40
0.0
 40
0.0
 40
0.0
 40
0.2500000000000001
 40
0.2500000000000001
 40
0.5000000000000001
 40
0.5000000000000001
 40
1.0
 40
1.0
 40
1.0
 40
1.0
 10
222.0532855928903
 20
202.927638353887
 30
0.0
 10
222.0532855928903
 20
202.9470470478452
 30
0.0
 10
222.0541903951142
 20
202.9664569348213
 30
0.0
 10
222.0580443804901
 20
203.0052794043711
 30
0.0
 10
222.0610383354093
 20
203.0249101608892
 30
0.0
 10
222.0729881135311
 20
203.0821482207004
 30
0.0
 10
222.0849143924951
 20
203.1188202305392
 30
0.0
 10
222.1007947625192
 20
203.1540076721675
 30
0.0
  0
LINE
  5
75
330
62
100
AcDbEntity
  8
NABEKONEJI_M8_00
  6
CONTINUOUS
 62
     7
100
AcDbLine
 10
223.1932855929
 20
203.1640076722
 30
0.0
 11
223.0932855929
 21
203.1640076722
 31
0.0
  0
LINE
  5
76
330
62
100
AcDbEntity
  8
NABEKONEJI_M8_00
  6
CONTINUOUS
 62
     7
100
AcDbLine
 10
223.0932855929
 20
202.3640076722
 30
0.0
 11
223.1932855929
 21
202.3640076722
 31
0.0
  0
ARC
  5
77
330
62
100
AcDbEntity
  8
NABEKONEJI_M8_00
  6
CONTINUOUS
 62
     7
100
AcDbCircle
 10
222.5732855929
 20
202.9440076722
 30
0.0
 40
0.5199999999999982
100
AcDbArc
 50
90.0
 51
156.2101225627
  0
ARC
  5
78
330
62
100
AcDbEntity
  8
NABEKONEJI_M8_00
  6
CONTINUOUS
 62
     7
100
AcDbCircle
 10
222.5732855929
 20
202.5840076722
 30
0.0
 40
0.5199999999999991
100
AcDbArc
 50
203.808686538
 51
270.0
  0
LINE
  5
79
330
62
100
AcDbEntity
  8
HIRAZAGANE_M8_00
  6
CONTINUOUS
 62
     7
100
AcDbLine
 10
222.7732855929
 20
205.4140076722
 30
0.0
 11
222.7732855929
 21
203.6140076722
 31
0.0
  0
LINE
  5
7A
330
62
100
AcDbEntity
  8
HIRAZAGANE_M8_00
  6
CONTINUOUS
 62
     7
100
AcDbLine
 10
222.9332855929
 20
205.4140076722
 30
0.0
 11
222.7732855929
 21
205.4140076722
 31
0.0
  0
LINE
  5
7B
330
62
100
AcDbEntity
  8
HIRAZAGANE_M8_00
  6
CONTINUOUS
 62
     7
100
AcDbLine
 10
222.7732855929
 20
203.6140076722
 30
0.0
 11
222.9332855929
 21
203.6140076722
 31
0.0
  0
LINE
  5
7C
330
62
100
AcDbEntity
  8
BANEZAGANE_M8_00
  6
CONTINUOUS
 62
     7
100
AcDbLine
 10
222.5732855929
 20
203.7444136233
 30
0.0
 11
222.5732855929
 21
205.2840076722
 31
0.0
  0
LINE
  5
7D
330
62
100
AcDbEntity
  8
BANEZAGANE_M8_00
  6
CONTINUOUS
 62
     7
100
AcDbLine
 10
222.5732855929
 20
203.7444136233
 30
0.0
 11
222.7732855929
 21
203.7444136233
 31
0.0
  0
LINE
  5
7E
330
62
100
AcDbEntity
  8
BANEZAGANE_M8_00
  6
CONTINUOUS
 62
     7
100
AcDbLine
 10
222.7732855929
 20
203.7444136233
 30
0.0
 11
222.5732855929
 21
203.7444136233
 31
0.0
  0
LINE
  5
7F
330
62
100
AcDbEntity
  8
BANEZAGANE_M8_00
  6
CONTINUOUS
 62
     7
100
AcDbLine
 10
222.7732855929
 20
205.2840076722
 30
0.0
 11
222.5732855929
 21
205.2840076722
 31
0.0
  0
LINE
  5
80
330
62
100
AcDbEntity
  8
NABEKONEJI_M8_00
  6
CONTINUOUS
 62
     7
100
AcDbLine
 10
222.0532855929
 20
204.4390076722
 30
0.0
 11
222.0532855929
 21
204.3503769904
 31
0.0
  0
LINE
  5
81
330
62
100
AcDbEntity
  8
NABEKONEJI_M8_00
  6
CONTINUOUS
 62
     7
100
AcDbLine
 10
222.0532855929
 20
204.6776383539
 30
0.0
 11
222.0532855929
 21
204.5890076722
 31
0.0
  0
SPLINE
  5
82
330
62
100
AcDbEntity
  8
NABEKONEJI_M8_00
  6
CONTINUOUS
 62
     7
100
AcDbSpline
210
0.0
220
0.0
230
1.0
 70
     8
 71
     3
 72
    10
 73
     6
 74
     0
 42
0.0000000665637782
 43
0.0000000001
 40
0.0
 40
0.0
 40
0.0
 40
0.0
 40
0.5
 40
0.5
 40
1.0
 40
1.0
 40
1.0
 40
1.0
 10
222.1007947625192
 20
204.4390076721687
 30
0.0
 10
222.0986279527893
 20
204.4639738002895
 30
0.0
 10
222.0975682064135
 20
204.4891783489213
 30
0.0
 10
222.0975830654453
 20
204.539360187791
 30
0.0
 10
222.0986481552627
 20
204.5642743183091
 30
0.0
 10
222.1007947625193
 20
204.5890076721675
 30
0.0
  0
LINE
  5
83
330
62
100
AcDbEntity
  8
NABEKONEJI_M8_00
  6
CONTINUOUS
 62
     7
100
AcDbLine
 10
222.0532855929
 20
204.4390076722
 30
0.0
 11
222.1007947625
 21
204.4390076722
 31
0.0
  0
LINE
  5
84
330
62
100
AcDbEntity
  8
NABEKONEJI_M8_00
  6
CONTINUOUS
 62
     7
100
AcDbLine
 10
222.1007947625
 20
204.5890076722
 30
0.0
 11
222.0532855929
 21
204.5890076722
 31
0.0
  0
SPLINE
  5
85
330
62
100
AcDbEntity
  8
NABEKONEJI_M8_00
  6
CONTINUOUS
 62
     7
100
AcDbSpline
210
0.0
220
0.0
230
1.0
 70
     8
 71
     3
 72
    15
 73
    11
 74
     0
 42
0.0000000428529178
 43
0.0000000001
 40
0.0
 40
0.0
 40
0.0
 40
0.0
 40
0.5000000000000012
 40
0.5000000000000012
 40
0.5625000000000012
 40
0.5625000000000012
 40
0.6250000000000013
 40
0.7500000000000008
 40
0.7500000000000008
 40
1.0
 40
1.0
 40
1.0
 40
1.0
 10
222.1007947625193
 20
204.1240076721675
 30
0.0
 10
222.0841833077411
 20
204.1608150383989
 30
0.0
 10
222.071955037861
 20
204.1991127997759
 30
0.0
 10
222.0630420885294
 20
204.2438448158622
 30
0.0
 10
222.0622130143981
 20
204.2483401879135
 30
0.0
 10
222.0606207439432
 20
204.2575979796062
 30
0.0
 10
222.0584159965017
 20
204.2714889678527
 30
0.0
 10
222.0567516466252
 20
204.2853926105371
 30
0.0
 10
222.0541155168331
 20
204.3132161137498
 30
0.0
 10
222.0532855928903
 20
204.3317868349743
 30
0.0
 10
222.0532855928903
 20
204.3503769904479
 30
0.0
  0
LINE
  5
86
330
62
100
AcDbEntity
  8
NABEKONEJI_M8_00
  6
CONTINUOUS
 62
     7
100
AcDbLine
 10
222.0975756359
 20
204.1240076722
 30
0.0
 11
222.1007947625
 21
204.1240076722
 31
0.0
  0
LINE
  5
87
330
62
100
AcDbEntity
  8
NABEKONEJI_M8_00
  6
CONTINUOUS
 62
     7
100
AcDbLine
 10
222.0975756359
 20
204.9040076722
 30
0.0
 11
222.1007947625
 21
204.9040076722
 31
0.0
  0
SPLINE
  5
88
330
62
100
AcDbEntity
  8
NABEKONEJI_M8_00
  6
CONTINUOUS
 62
     7
100
AcDbSpline
210
0.0
220
0.0
230
1.0
 70
     8
 71
     3
 72
    12
 73
     8
 74
     0
 42
0.0000000428540101
 43
0.0000000001
 40
0.0
 40
0.0
 40
0.0
 40
0.0
 40
0.2500000000000001
 40
0.2500000000000001
 40
0.5000000000000001
 40
0.5000000000000001
 40
1.0
 40
1.0
 40
1.0
 40
1.0
 10
222.0532855928903
 20
204.677638353887
 30
0.0
 10
222.0532855928903
 20
204.6970470478452
 30
0.0
 10
222.0541903951142
 20
204.7164569348213
 30
0.0
 10
222.0580443804901
 20
204.7552794043711
 30
0.0
 10
222.0610383354093
 20
204.7749101608892
 30
0.0
 10
222.0729881135311
 20
204.8321482207004
 30
0.0
 10
222.0849143924951
 20
204.8688202305392
 30
0.0
 10
222.1007947625192
 20
204.9040076721675
 30
0.0
  0
LINE
  5
89
330
62
100
AcDbEntity
  8
NABEKONEJI_M8_00
  6
CONTINUOUS
 62
     7
100
AcDbLine
 10
223.1932855929
 20
204.9140076722
 30
0.0
 11
223.0932855929
 21
204.9140076722
 31
0.0
  0
LINE
  5
8A
330
62
100
AcDbEntity
  8
NABEKONEJI_M8_00
  6
CONTINUOUS
 62
     7
100
AcDbLine
 10
223.0932855929
 20
204.1140076722
 30
0.0
 11
223.1932855929
 21
204.1140076722
 31
0.0
  0
ARC
  5
8B
330
62
100
AcDbEntity
  8
NABEKONEJI_M8_00
  6
CONTINUOUS
 62
     7
100
AcDbCircle
 10
222.5732855929
 20
204.6940076722
 30
0.0
 40
0.5199999999999982
100
AcDbArc
 50
90.0
 51
156.2101225627
  0
ARC
  5
8C
330
62
100
AcDbEntity
  8
NABEKONEJI_M8_00
  6
CONTINUOUS
 62
     7
100
AcDbCircle
 10
222.5732855929
 20
204.3340076722
 30
0.0
 40
0.5199999999999968
100
AcDbArc
 50
203.808686538
 51
270.0
  0
LINE
  5
8D
330
62
100
AcDbEntity
  8
HIRAZAGANE_M8_00
  6
CONTINUOUS
 62
     7
100
AcDbLine
 10
153.8732855929
 20
203.6140076722
 30
0.0
 11
153.8732855929
 21
205.4140076722
 31
0.0
  0
LINE
  5
8E
330
62
100
AcDbEntity
  8
HIRAZAGANE_M8_00
  6
CONTINUOUS
 62
     7
100
AcDbLine
 10
153.7132855929
 20
203.6140076722
 30
0.0
 11
153.8732855929
 21
203.6140076722
 31
0.0
  0
LINE
  5
8F
330
62
100
AcDbEntity
  8
HIRAZAGANE_M8_00
  6
CONTINUOUS
 62
     7
100
AcDbLine
 10
153.8732855929
 20
205.4140076722
 30
0.0
 11
153.7132855929
 21
205.4140076722
 31
0.0
  0
LINE
  5
90
330
62
100
AcDbEntity
  8
BANEZAGANE_M8_00
  6
CONTINUOUS
 62
     7
100
AcDbLine
 10
154.0732855929
 20
203.7444136233
 30
0.0
 11
154.0732855929
 21
205.2840076722
 31
0.0
  0
LINE
  5
91
330
62
100
AcDbEntity
  8
BANEZAGANE_M8_00
  6
CONTINUOUS
 62
     7
100
AcDbLine
 10
154.0732855929
 20
203.7444136233
 30
0.0
 11
153.8732855929
 21
203.7444136233
 31
0.0
  0
LINE
  5
92
330
62
100
AcDbEntity
  8
BANEZAGANE_M8_00
  6
CONTINUOUS
 62
     7
100
AcDbLine
 10
153.8732855929
 20
203.7444136233
 30
0.0
 11
154.0732855929
 21
203.7444136233
 31
0.0
  0
LINE
  5
93
330
62
100
AcDbEntity
  8
BANEZAGANE_M8_00
  6
CONTINUOUS
 62
     7
100
AcDbLine
 10
154.0732855929
 20
205.2840076722
 30
0.0
 11
153.8732855929
 21
205.2840076722
 31
0.0
  0
LINE
  5
94
330
62
100
AcDbEntity
  8
NABEKONEJI_M8_00
  6
CONTINUOUS
 62
     7
100
AcDbLine
 10
154.5932855929
 20
204.3503769904
 30
0.0
 11
154.5932855929
 21
204.4390076722
 31
0.0
  0
LINE
  5
95
330
62
100
AcDbEntity
  8
NABEKONEJI_M8_00
  6
CONTINUOUS
 62
     7
100
AcDbLine
 10
154.5932855929
 20
204.5890076722
 30
0.0
 11
154.5932855929
 21
204.6776383539
 31
0.0
  0
LINE
  5
96
330
62
100
AcDbEntity
  8
NABEKONEJI_M8_00
  6
CONTINUOUS
 62
     7
100
AcDbLine
 10
154.5489955499
 20
204.1240076722
 30
0.0
 11
154.5457764233
 21
204.1240076722
 31
0.0
  0
SPLINE
  5
97
330
62
100
AcDbEntity
  8
NABEKONEJI_M8_00
  6
CONTINUOUS
 62
     7
100
AcDbSpline
210
0.0
220
0.0
230
1.0
 70
     8
 71
     3
 72
    12
 73
     8
 74
     0
 42
0.0000000428540101
 43
0.0000000001
 40
0.0
 40
0.0
 40
0.0
 40
0.0
 40
0.2500000000000001
 40
0.2500000000000001
 40
0.5000000000000001
 40
0.5000000000000001
 40
1.0
 40
1.0
 40
1.0
 40
1.0
 10
154.5932855928902
 20
204.3503769904479
 30
0.0
 10
154.5932855928902
 20
204.3309682964897
 30
0.0
 10
154.5923807906663
 20
204.3115584095137
 30
0.0
 10
154.5885268052904
 20
204.2727359399638
 30
0.0
 10
154.5855328503712
 20
204.2531051834457
 30
0.0
 10
154.5735830722494
 20
204.1958671236345
 30
0.0
 10
154.5616567932854
 20
204.1591951137957
 30
0.0
 10
154.5457764232613
 20
204.1240076721675
 30
0.0
  0
LINE
  5
98
330
62
100
AcDbEntity
  8
NABEKONEJI_M8_00
  6
CONTINUOUS
 62
     7
100
AcDbLine
 10
154.5457764233
 20
204.4390076722
 30
0.0
 11
154.5932855929
 21
204.4390076722
 31
0.0
  0
SPLINE
  5
99
330
62
100
AcDbEntity
  8
NABEKONEJI_M8_00
  6
CONTINUOUS
 62
     7
100
AcDbSpline
210
0.0
220
0.0
230
1.0
 70
     8
 71
     3
 72
    10
 73
     6
 74
     0
 42
0.0000000665637782
 43
0.0000000001
 40
0.0
 40
0.0
 40
0.0
 40
0.0
 40
0.5
 40
0.5
 40
1.0
 40
1.0
 40
1.0
 40
1.0
 10
154.5457764232613
 20
204.5890076721675
 30
0.0
 10
154.5479432329911
 20
204.5640415440465
 30
0.0
 10
154.549002979367
 20
204.5388369954145
 30
0.0
 10
154.5489881203352
 20
204.4886551565443
 30
0.0
 10
154.5479230305178
 20
204.463741026026
 30
0.0
 10
154.5457764232612
 20
204.4390076721675
 30
0.0
  0
LINE
  5
9A
330
62
100
AcDbEntity
  8
NABEKONEJI_M8_00
  6
CONTINUOUS
 62
     7
100
AcDbLine
 10
154.5932855929
 20
204.5890076722
 30
0.0
 11
154.5457764233
 21
204.5890076722
 31
0.0
  0
SPLINE
  5
9B
330
62
100
AcDbEntity
  8
NABEKONEJI_M8_00
  6
CONTINUOUS
 62
     7
100
AcDbSpline
210
0.0
220
0.0
230
1.0
 70
     8
 71
     3
 72
    15
 73
    11
 74
     0
 42
0.0000000428529178
 43
0.0000000001
 40
0.0
 40
0.0
 40
0.0
 40
0.0
 40
0.4999999999999998
 40
0.4999999999999998
 40
0.5624999999999996
 40
0.5624999999999996
 40
0.6249999999999993
 40
0.7499999999999994
 40
0.7499999999999994
 40
1.0
 40
1.0
 40
1.0
 40
1.0
 10
154.5457764232612
 20
204.9040076721675
 30
0.0
 10
154.5623878780394
 20
204.8672003059361
 30
0.0
 10
154.5746161479194
 20
204.828902544559
 30
0.0
 10
154.5835290972511
 20
204.7841705284727
 30
0.0
 10
154.5843581713824
 20
204.7796751564214
 30
0.0
 10
154.5859504418373
 20
204.7704173647287
 30
0.0
 10
154.5881551892788
 20
204.7565263764822
 30
0.0
 10
154.5898195391553
 20
204.7426227337979
 30
0.0
 10
154.5924556689474
 20
204.7147992305852
 30
0.0
 10
154.5932855928902
 20
204.6962285093607
 30
0.0
 10
154.5932855928902
 20
204.677638353887
 30
0.0
  0
LINE
  5
9C
330
62
100
AcDbEntity
  8
NABEKONEJI_M8_00
  6
CONTINUOUS
 62
     7
100
AcDbLine
 10
154.5489955499
 20
204.9040076722
 30
0.0
 11
154.5457764233
 21
204.9040076722
 31
0.0
  0
LINE
  5
9D
330
62
100
AcDbEntity
  8
NABEKONEJI_M8_00
  6
CONTINUOUS
 62
     7
100
AcDbLine
 10
153.4532855929
 20
204.1140076722
 30
0.0
 11
153.5532855929
 21
204.1140076722
 31
0.0
  0
LINE
  5
9E
330
62
100
AcDbEntity
  8
NABEKONEJI_M8_00
  6
CONTINUOUS
 62
     7
100
AcDbLine
 10
153.5532855929
 20
204.9140076722
 30
0.0
 11
153.4532855929
 21
204.9140076722
 31
0.0
  0
ARC
  5
9F
330
62
100
AcDbEntity
  8
NABEKONEJI_M8_00
  6
CONTINUOUS
 62
     7
100
AcDbCircle
 10
154.0732855929
 20
204.3340076722
 30
0.0
 40
0.5199999999999982
100
AcDbArc
 50
270.0
 51
336.2101225627
  0
ARC
  5
A0
330
62
100
AcDbEntity
  8
NABEKONEJI_M8_00
  6
CONTINUOUS
 62
     7
100
AcDbCircle
 10
154.0732855929
 20
204.6940076722
 30
0.0
 40
0.5199999999999968
100
AcDbArc
 50
23.808686538
 51
90.0
  0
LINE
  5
A1
330
62
100
AcDbEntity
  8
HIRAZAGANE_M8_00
  6
CONTINUOUS
 62
     7
100
AcDbLine
 10
153.8732855929
 20
201.8640076722
 30
0.0
 11
153.8732855929
 21
203.6140076722
 31
0.0
  0
LINE
  5
A2
330
62
100
AcDbEntity
  8
HIRAZAGANE_M8_00
  6
CONTINUOUS
 62
     7
100
AcDbLine
 10
153.7132855929
 20
201.8640076722
 30
0.0
 11
153.8732855929
 21
201.8640076722
 31
0.0
  0
LINE
  5
A3
330
62
100
AcDbEntity
  8
BANEZAGANE_M8_00
  6
CONTINUOUS
 62
     7
100
AcDbLine
 10
154.0732855929
 20
203.5340076722
 30
0.0
 11
154.0732855929
 21
201.9940076722
 31
0.0
  0
LINE
  5
A4
330
62
100
AcDbEntity
  8
BANEZAGANE_M8_00
  6
CONTINUOUS
 62
     7
100
AcDbLine
 10
153.8732855929
 20
201.9940076722
 30
0.0
 11
154.0732855929
 21
201.9940076722
 31
0.0
  0
LINE
  5
A5
330
62
100
AcDbEntity
  8
BANEZAGANE_M8_00
  6
CONTINUOUS
 62
     7
100
AcDbLine
 10
154.0732855929
 20
203.5340076722
 30
0.0
 11
153.8732855929
 21
203.5340076722
 31
0.0
  0
LINE
  5
A6
330
62
100
AcDbEntity
  8
NABEKONEJI_M8_00
  6
CONTINUOUS
 62
     7
100
AcDbLine
 10
154.5932855929
 20
202.6003769904
 30
0.0
 11
154.5932855929
 21
202.6890076722
 31
0.0
  0
LINE
  5
A7
330
62
100
AcDbEntity
  8
NABEKONEJI_M8_00
  6
CONTINUOUS
 62
     7
100
AcDbLine
 10
154.5932855929
 20
202.8390076722
 30
0.0
 11
154.5932855929
 21
202.9276383539
 31
0.0
  0
LINE
  5
A8
330
62
100
AcDbEntity
  8
NABEKONEJI_M8_00
  6
CONTINUOUS
 62
     7
100
AcDbLine
 10
154.5489955499
 20
203.1540076722
 30
0.0
 11
154.5457764233
 21
203.1540076722
 31
0.0
  0
SPLINE
  5
A9
330
62
100
AcDbEntity
  8
NABEKONEJI_M8_00
  6
CONTINUOUS
 62
     7
100
AcDbSpline
210
0.0
220
0.0
230
1.0
 70
     8
 71
     3
 72
    15
 73
    11
 74
     0
 42
0.0000000428529178
 43
0.0000000001
 40
0.0
 40
0.0
 40
0.0
 40
0.0
 40
0.5000000000000008
 40
0.5000000000000008
 40
0.5625000000000009
 40
0.5625000000000009
 40
0.625000000000001
 40
0.7500000000000006
 40
0.7500000000000006
 40
1.0
 40
1.0
 40
1.0
 40
1.0
 10
154.5457764232612
 20
203.1540076721675
 30
0.0
 10
154.5623878780394
 20
203.1172003059361
 30
0.0
 10
154.5746161479194
 20
203.078902544559
 30
0.0
 10
154.5835290972511
 20
203.0341705284727
 30
0.0
 10
154.5843581713824
 20
203.0296751564214
 30
0.0
 10
154.5859504418373
 20
203.0204173647287
 30
0.0
 10
154.5881551892788
 20
203.0065263764822
 30
0.0
 10
154.5898195391553
 20
202.9926227337979
 30
0.0
 10
154.5924556689474
 20
202.9647992305851
 30
0.0
 10
154.5932855928902
 20
202.9462285093606
 30
0.0
 10
154.5932855928902
 20
202.927638353887
 30
0.0
  0
LINE
  5
AA
330
62
100
AcDbEntity
  8
NABEKONEJI_M8_00
  6
CONTINUOUS
 62
     7
100
AcDbLine
 10
154.5489955499
 20
202.3740076722
 30
0.0
 11
154.5457764233
 21
202.3740076722
 31
0.0
  0
SPLINE
  5
AB
330
62
100
AcDbEntity
  8
NABEKONEJI_M8_00
  6
CONTINUOUS
 62
     7
100
AcDbSpline
210
0.0
220
0.0
230
1.0
 70
     8
 71
     3
 72
    12
 73
     8
 74
     0
 42
0.0000000428540101
 43
0.0000000001
 40
0.0
 40
0.0
 40
0.0
 40
0.0
 40
0.2499999999999999
 40
0.2499999999999999
 40
0.4999999999999999
 40
0.4999999999999999
 40
1.0
 40
1.0
 40
1.0
 40
1.0
 10
154.5932855928902
 20
202.6003769904479
 30
0.0
 10
154.5932855928902
 20
202.5809682964897
 30
0.0
 10
154.5923807906663
 20
202.5615584095137
 30
0.0
 10
154.5885268052904
 20
202.5227359399638
 30
0.0
 10
154.5855328503712
 20
202.5031051834457
 30
0.0
 10
154.5735830722494
 20
202.4458671236345
 30
0.0
 10
154.5616567932854
 20
202.4091951137957
 30
0.0
 10
154.5457764232613
 20
202.3740076721675
 30
0.0
  0
LINE
  5
AC
330
62
100
AcDbEntity
  8
NABEKONEJI_M8_00
  6
CONTINUOUS
 62
     7
100
AcDbLine
 10
154.5457764233
 20
202.6890076722
 30
0.0
 11
154.5932855929
 21
202.6890076722
 31
0.0
  0
SPLINE
  5
AD
330
62
100
AcDbEntity
  8
NABEKONEJI_M8_00
  6
CONTINUOUS
 62
     7
100
AcDbSpline
210
0.0
220
0.0
230
1.0
 70
     8
 71
     3
 72
    10
 73
     6
 74
     0
 42
0.0000000665637782
 43
0.0000000001
 40
0.0
 40
0.0
 40
0.0
 40
0.0
 40
0.5
 40
0.5
 40
1.0
 40
1.0
 40
1.0
 40
1.0
 10
154.5457764232613
 20
202.8390076721674
 30
0.0
 10
154.5479432329911
 20
202.8140415440465
 30
0.0
 10
154.549002979367
 20
202.7888369954145
 30
0.0
 10
154.5489881203352
 20
202.7386551565443
 30
0.0
 10
154.5479230305178
 20
202.713741026026
 30
0.0
 10
154.5457764232612
 20
202.6890076721675
 30
0.0
  0
LINE
  5
AE
330
62
100
AcDbEntity
  8
NABEKONEJI_M8_00
  6
CONTINUOUS
 62
     7
100
AcDbLine
 10
154.5932855929
 20
202.8390076722
 30
0.0
 11
154.5457764233
 21
202.8390076722
 31
0.0
  0
LINE
  5
AF
330
62
100
AcDbEntity
  8
NABEKONEJI_M8_00
  6
CONTINUOUS
 62
     7
100
AcDbLine
 10
153.4532855929
 20
202.3640076722
 30
0.0
 11
153.5532855929
 21
202.3640076722
 31
0.0
  0
LINE
  5
B0
330
62
100
AcDbEntity
  8
NABEKONEJI_M8_00
  6
CONTINUOUS
 62
     7
100
AcDbLine
 10
153.5532855929
 20
203.1640076722
 30
0.0
 11
153.4532855929
 21
203.1640076722
 31
0.0
  0
ARC
  5
B1
330
62
100
AcDbEntity
  8
NABEKONEJI_M8_00
  6
CONTINUOUS
 62
     7
100
AcDbCircle
 10
154.0732855929
 20
202.5840076722
 30
0.0
 40
0.5199999999999982
100
AcDbArc
 50
270.0
 51
336.2101225627
  0
ARC
  5
B2
330
62
100
AcDbEntity
  8
NABEKONEJI_M8_00
  6
CONTINUOUS
 62
     7
100
AcDbCircle
 10
154.0732855929
 20
202.9440076722
 30
0.0
 40
0.5199999999999991
100
AcDbArc
 50
23.808686538
 51
90.0
  0
LINE
  5
B4
330
62
100
AcDbEntity
  8
TANAITA_BLACKET_
  6
CONTINUOUS
 62
     7
100
AcDbLine
 10
222.1932855929
 20
206.5140076722
 30
0.0
 11
222.1932855929
 21
206.3340076722
 31
0.0
  0
LINE
  5
B5
330
62
100
AcDbEntity
  8
TANAITA_BLACKET_
  6
CONTINUOUS
 62
     7
100
AcDbLine
 10
222.0332855929
 20
206.3340076722
 30
0.0
 11
222.0332855929
 21
200.1778786399
 31
0.0
  0
LINE
  5
B6
330
62
100
AcDbEntity
  8
TANAITA_BLACKET_
  6
CONTINUOUS
 62
     7
100
AcDbLine
 10
222.0332855929
 20
206.5140076722
 30
0.0
 11
222.0332855929
 21
206.3340076722
 31
0.0
  0
LINE
  5
B7
330
62
100
AcDbEntity
  8
TANAITA_BLACKET_
  6
CONTINUOUS
 62
     7
100
AcDbLine
 10
222.9332855929
 20
206.3340076722
 30
0.0
 11
222.9257345634
 21
206.3340076722
 31
0.0
  0
LINE
  5
B8
330
62
100
AcDbEntity
  8
TANAITA_BLACKET_
  6
CONTINUOUS
 62
     7
100
AcDbLine
 10
222.0801485079
 20
206.3340076722
 30
0.0
 11
222.9257345634
 21
206.3340076722
 31
0.0
  0
LINE
  5
B9
330
62
100
AcDbEntity
  8
TANAITA_BLACKET_
  6
CONTINUOUS
 62
     7
100
AcDbLine
 10
222.9257345634
 20
206.3340076722
 30
0.0
 11
222.9257345634
 21
205.4140076722
 31
0.0
  0
LINE
  5
BA
330
62
100
AcDbEntity
  8
TANAITA_BLACKET_
  6
CONTINUOUS
 62
     7
100
AcDbLine
 10
222.9257345634
 20
201.8640076722
 30
0.0
 11
222.9257345634
 21
199.9487520958
 31
0.0
  0
LINE
  5
BB
330
62
100
AcDbEntity
  8
TANAITA_BLACKET_
  6
CONTINUOUS
 62
     7
100
AcDbLine
 10
222.9257345634
 20
199.9487520958
 30
0.0
 11
222.0801485079
 21
200.1778786399
 31
0.0
  0
ELLIPSE
  5
BC
330
62
100
AcDbEntity
  8
TANAITA_BLACKET_
  6
CONTINUOUS
 62
     7
100
AcDbEllipse
 10
222.9332855929
 20
199.9467060104
 30
0.0
 11
0.0106769708962895
 21
-0.00147310123865263
 31
0.0
210
0.0
220
0.0
230
1.0
 40
0.1329977828
 41
1.589143966351124
 42
2.37454212975129
  0
LINE
  5
BD
330
62
100
AcDbEntity
  8
TANAITA_BLACKET_
  6
CONTINUOUS
 62
     7
100
AcDbLine
 10
222.0332855929
 20
200.1778786399
 30
0.0
 11
222.0801485079
 21
200.1778786399
 31
0.0
  0
LINE
  5
BE
330
62
100
AcDbEntity
  8
TANAITA_BLACKET_
  6
CONTINUOUS
 62
     7
100
AcDbLine
 10
222.0801485079
 20
206.3340076722
 30
0.0
 11
222.0332855929
 21
206.3340076722
 31
0.0
  0
LINE
  5
BF
330
62
100
AcDbEntity
  8
TANAITA_BLACKET_
  6
CONTINUOUS
 62
     7
100
AcDbLine
 10
222.9332855929
 20
199.9340076722
 30
0.0
 11
223.0932855929
 21
199.9340076722
 31
0.0
  0
LINE
  5
C0
330
62
100
AcDbEntity
  8
TANAITA_BLACKET_
  6
CONTINUOUS
 62
     7
100
AcDbLine
 10
223.0932855929
 20
205.8340076722
 30
0.0
 11
223.0932855929
 21
200.4340076722
 31
0.0
  0
LINE
  5
C1
330
62
100
AcDbEntity
  8
TANAITA_BLACKET_
  6
CONTINUOUS
 62
     7
100
AcDbLine
 10
223.0932855929
 20
205.8340076722
 30
0.0
 11
223.0932855929
 21
206.3340076722
 31
0.0
  0
LINE
  5
C2
330
62
100
AcDbEntity
  8
TANAITA_BLACKET_
  6
CONTINUOUS
 62
     7
100
AcDbLine
 10
223.0932855929
 20
199.9340076722
 30
0.0
 11
223.0932855929
 21
200.4340076722
 31
0.0
  0
LINE
  5
C3
330
62
100
AcDbEntity
  8
TANAITA_BLACKET_
  6
CONTINUOUS
 62
     7
100
AcDbLine
 10
222.9332855929
 20
205.8340076722
 30
0.0
 11
222.9332855929
 21
200.4340076722
 31
0.0
  0
LINE
  5
C4
330
62
100
AcDbEntity
  8
TANAITA_BLACKET_
  6
CONTINUOUS
 62
     7
100
AcDbLine
 10
222.9332855929
 20
206.3340076722
 30
0.0
 11
222.9332855929
 21
205.8340076722
 31
0.0
  0
LINE
  5
C5
330
62
100
AcDbEntity
  8
TANAITA_BLACKET_
  6
CONTINUOUS
 62
     7
100
AcDbLine
 10
222.9332855929
 20
200.4340076722
 30
0.0
 11
222.9332855929
 21
199.9340076722
 31
0.0
  0
LINE
  5
C6
330
62
100
AcDbEntity
  8
TANAITA_BLACKET_
  6
CONTINUOUS
 62
     7
100
AcDbLine
 10
223.0932855929
 20
206.3340076722
 30
0.0
 11
222.9332855929
 21
206.3340076722
 31
0.0
  0
LINE
  5
C7
330
62
100
AcDbEntity
  8
TANAITA_BLACKET_
  6
CONTINUOUS
 62
     7
100
AcDbLine
 10
154.4532855929
 20
206.5140076722
 30
0.0
 11
154.4532855929
 21
206.3340076722
 31
0.0
  0
LINE
  5
C8
330
62
100
AcDbEntity
  8
TANAITA_BLACKET_
  6
CONTINUOUS
 62
     7
100
AcDbLine
 10
154.6132855929
 20
206.3340076722
 30
0.0
 11
154.6132855929
 21
200.1778786399
 31
0.0
  0
LINE
  5
C9
330
62
100
AcDbEntity
  8
TANAITA_BLACKET_
  6
CONTINUOUS
 62
     7
100
AcDbLine
 10
154.6132855929
 20
206.5140076722
 30
0.0
 11
154.6132855929
 21
206.3340076722
 31
0.0
  0
LINE
  5
CA
330
62
100
AcDbEntity
  8
TANAITA_BLACKET_
  6
CONTINUOUS
 62
     7
100
AcDbLine
 10
153.7132855929
 20
206.3340076722
 30
0.0
 11
153.7208366224
 21
206.3340076722
 31
0.0
  0
LINE
  5
CB
330
62
100
AcDbEntity
  8
TANAITA_BLACKET_
  6
CONTINUOUS
 62
     7
100
AcDbLine
 10
154.5664226779
 20
206.3340076722
 30
0.0
 11
153.7208366224
 21
206.3340076722
 31
0.0
  0
LINE
  5
CC
330
62
100
AcDbEntity
  8
TANAITA_BLACKET_
  6
CONTINUOUS
 62
     7
100
AcDbLine
 10
153.7208366224
 20
206.3340076722
 30
0.0
 11
153.7208366224
 21
205.4140076722
 31
0.0
  0
LINE
  5
CD
330
62
100
AcDbEntity
  8
TANAITA_BLACKET_
  6
CONTINUOUS
 62
     7
100
AcDbLine
 10
153.7208366224
 20
201.8640076722
 30
0.0
 11
153.7208366224
 21
199.9487520958
 31
0.0
  0
LINE
  5
CE
330
62
100
AcDbEntity
  8
TANAITA_BLACKET_
  6
CONTINUOUS
 62
     7
100
AcDbLine
 10
153.7208366224
 20
199.9487520958
 30
0.0
 11
154.5664226779
 21
200.1778786399
 31
0.0
  0
ELLIPSE
  5
CF
330
62
100
AcDbEntity
  8
TANAITA_BLACKET_
  6
CONTINUOUS
 62
     7
100
AcDbEllipse
 10
153.7132855929
 20
199.9467060104
 30
0.0
 11
-0.0106769708962895
 21
-0.00147310123865263
 31
0.0
210
0.0
220
0.0
230
1.0
 40
0.1329977828
 41
3.908643177428297
 42
4.694041340828462
  0
LINE
  5
D0
330
62
100
AcDbEntity
  8
TANAITA_BLACKET_
  6
CONTINUOUS
 62
     7
100
AcDbLine
 10
153.7026068246
 20
206.3340076722
 30
0.0
 11
153.7057345634
 21
206.3340076722
 31
0.0
  0
LINE
  5
D1
330
62
100
AcDbEntity
  8
TANAITA_BLACKET_
  6
CONTINUOUS
 62
     7
100
AcDbLine
 10
154.6132855929
 20
200.1778786399
 30
0.0
 11
154.5664226779
 21
200.1778786399
 31
0.0
  0
LINE
  5
D2
330
62
100
AcDbEntity
  8
TANAITA_BLACKET_
  6
CONTINUOUS
 62
     7
100
AcDbLine
 10
154.5664226779
 20
206.3340076722
 30
0.0
 11
154.6132855929
 21
206.3340076722
 31
0.0
  0
LINE
  5
D3
330
62
100
AcDbEntity
  8
TANAITA_BLACKET_
  6
CONTINUOUS
 62
     7
100
AcDbLine
 10
153.7132855929
 20
199.9340076722
 30
0.0
 11
153.5532855929
 21
199.9340076722
 31
0.0
  0
LINE
  5
D4
330
62
100
AcDbEntity
  8
TANAITA_BLACKET_
  6
CONTINUOUS
 62
     7
100
AcDbLine
 10
153.5532855929
 20
205.8340076722
 30
0.0
 11
153.5532855929
 21
200.4340076722
 31
0.0
  0
LINE
  5
D5
330
62
100
AcDbEntity
  8
TANAITA_BLACKET_
  6
CONTINUOUS
 62
     7
100
AcDbLine
 10
153.5532855929
 20
205.8340076722
 30
0.0
 11
153.5532855929
 21
206.3340076722
 31
0.0
  0
LINE
  5
D6
330
62
100
AcDbEntity
  8
TANAITA_BLACKET_
  6
CONTINUOUS
 62
     7
100
AcDbLine
 10
153.5532855929
 20
199.9340076722
 30
0.0
 11
153.5532855929
 21
200.4340076722
 31
0.0
  0
LINE
  5
D7
330
62
100
AcDbEntity
  8
TANAITA_BLACKET_
  6
CONTINUOUS
 62
     7
100
AcDbLine
 10
153.7132855929
 20
205.8340076722
 30
0.0
 11
153.7132855929
 21
200.4340076722
 31
0.0
  0
LINE
  5
D8
330
62
100
AcDbEntity
  8
TANAITA_BLACKET_
  6
CONTINUOUS
 62
     7
100
AcDbLine
 10
153.7132855929
 20
206.3340076722
 30
0.0
 11
153.7132855929
 21
205.8340076722
 31
0.0
  0
LINE
  5
D9
330
62
100
AcDbEntity
  8
TANAITA_BLACKET_
  6
CONTINUOUS
 62
     7
100
AcDbLine
 10
153.7132855929
 20
200.4340076722
 30
0.0
 11
153.7132855929
 21
199.9340076722
 31
0.0
  0
LINE
  5
DA
330
62
100
AcDbEntity
  8
TANAITA_BLACKET_
  6
CONTINUOUS
 62
     7
100
AcDbLine
 10
153.5532855929
 20
206.3340076722
 30
0.0
 11
153.7132855929
 21
206.3340076722
 31
0.0
  0
LINE
  5
DC
330
62
100
AcDbEntity
  8
TANAITA_HONNTAI_
  6
CONTINUOUS
 62
     7
100
AcDbLine
 10
222.9732855929
 20
206.5140076722
 30
0.0
 11
153.6732855929
 21
206.5140076722
 31
0.0
  0
LINE
  5
DD
330
62
100
AcDbEntity
  8
TANAITA_HONNTAI_
  6
CONTINUOUS
 62
     7
100
AcDbLine
 10
153.6532855929
 20
207.9803880726
 30
0.0
 11
153.6532855929
 21
206.9440076722
 31
0.0
  0
LINE
  5
DE
330
62
100
AcDbEntity
  8
TANAITA_HONNTAI_
  6
CONTINUOUS
 62
     7
100
AcDbLine
 10
153.6732855929
 20
207.9803880726
 30
0.0
 11
153.6532855929
 21
207.9803880726
 31
0.0
  0
LINE
  5
DF
330
62
100
AcDbEntity
  8
TANAITA_HONNTAI_
  6
CONTINUOUS
 62
     7
100
AcDbLine
 10
153.6532855929
 20
206.9440076722
 30
0.0
 11
153.6532855929
 21
206.6440076722
 31
0.0
  0
LINE
  5
E0
330
62
100
AcDbEntity
  8
TANAITA_HONNTAI_
  6
CONTINUOUS
 62
     7
100
AcDbLine
 10
153.6732855929
 20
206.6440076722
 30
0.0
 11
153.6532855929
 21
206.6440076722
 31
0.0
  0
LINE
  5
E1
330
62
100
AcDbEntity
  8
TANAITA_HONNTAI_
  6
CONTINUOUS
 62
     7
100
AcDbLine
 10
153.6532855929
 20
206.6440076722
 30
0.0
 11
153.6532855929
 21
206.5940076722
 31
0.0
  0
LINE
  5
E2
330
62
100
AcDbEntity
  8
TANAITA_HONNTAI_
  6
CONTINUOUS
 62
     7
100
AcDbLine
 10
153.6532855929
 20
208.1940076722
 30
0.0
 11
153.6532855929
 21
207.9803880726
 31
0.0
  0
LINE
  5
E3
330
62
100
AcDbEntity
  8
TANAITA_HONNTAI_
  6
CONTINUOUS
 62
     7
100
AcDbLine
 10
153.6732855929
 20
208.1940076722
 30
0.0
 11
153.6532855929
 21
208.1940076722
 31
0.0
  0
LINE
  5
E4
330
62
100
AcDbEntity
  8
TANAITA_HONNTAI_
  6
CONTINUOUS
 62
     7
100
AcDbLine
 10
153.6532855929
 20
208.4340076722
 30
0.0
 11
153.6532855929
 21
208.1940076722
 31
0.0
  0
LINE
  5
E5
330
62
100
AcDbEntity
  8
TANAITA_HONNTAI_
  6
CONTINUOUS
 62
     7
100
AcDbLine
 10
153.6732855929
 20
208.5140076722
 30
0.0
 11
222.9732855929
 21
208.5140076722
 31
0.0
  0
ARC
  5
E6
330
62
100
AcDbEntity
  8
TANAITA_HONNTAI_
  6
CONTINUOUS
 62
     7
100
AcDbCircle
 10
153.7332855929
 20
208.4340076722
 30
0.0
 40
0.0800000000000023
100
AcDbArc
 50
138.5903778907
 51
180.0
  0
ARC
  5
E7
330
62
100
AcDbEntity
  8
TANAITA_HONNTAI_
  6
CONTINUOUS
 62
     7
100
AcDbCircle
 10
153.7332855929
 20
206.5940076722
 30
0.0
 40
0.0800000000000023
100
AcDbArc
 50
180.0
 51
221.4096221093
  0
LINE
  5
E8
330
62
100
AcDbEntity
  8
TANAITA_HONNTAI_
  6
CONTINUOUS
 62
     7
100
AcDbLine
 10
153.6732855929
 20
208.0940076722
 30
0.0
 11
153.6732855929
 21
208.5140076722
 31
0.0
  0
LINE
  5
E9
330
62
100
AcDbEntity
  8
TANAITA_HONNTAI_
  6
CONTINUOUS
 62
     7
100
AcDbLine
 10
153.6732855929
 20
206.5140076722
 30
0.0
 11
153.6732855929
 21
206.9340076722
 31
0.0
  0
LINE
  5
EA
330
62
100
AcDbEntity
  8
TANAITA_HONNTAI_
  6
CONTINUOUS
 62
     7
100
AcDbLine
 10
153.6732855929
 20
206.9340076722
 30
0.0
 11
153.6732855929
 21
208.0940076722
 31
0.0
  0
LINE
  5
EB
330
62
100
AcDbEntity
  8
TANAITA_HONNTAI_
  6
CONTINUOUS
 62
     7
100
AcDbLine
 10
153.6732855929
 20
208.5140076722
 30
0.0
 11
153.7332855929
 21
208.5140076722
 31
0.0
  0
LINE
  5
EC
330
62
100
AcDbEntity
  8
TANAITA_HONNTAI_
  6
CONTINUOUS
 62
     7
100
AcDbLine
 10
153.6732855929
 20
208.4869226984
 30
0.0
 11
153.6732855929
 21
208.5140076722
 31
0.0
  0
LINE
  5
ED
330
62
100
AcDbEntity
  8
TANAITA_HONNTAI_
  6
CONTINUOUS
 62
     7
100
AcDbLine
 10
153.6732855929
 20
206.5140076722
 30
0.0
 11
153.6732855929
 21
206.5410926459
 31
0.0
  0
LINE
  5
EE
330
62
100
AcDbEntity
  8
TANAITA_HONNTAI_
  6
CONTINUOUS
 62
     7
100
AcDbLine
 10
153.7332855929
 20
206.5140076722
 30
0.0
 11
153.6732855929
 21
206.5140076722
 31
0.0
  0
LINE
  5
EF
330
62
100
AcDbEntity
  8
TANAITA_HONNTAI_
  6
CONTINUOUS
 62
     7
100
AcDbLine
 10
222.9132855929
 20
206.5140076722
 30
0.0
 11
222.0732855929
 21
206.5140076722
 31
0.0
  0
LINE
  5
F0
330
62
100
AcDbEntity
  8
TANAITA_HONNTAI_
  6
CONTINUOUS
 62
     7
100
AcDbLine
 10
222.9932855929
 20
208.4340076722
 30
0.0
 11
222.9932855929
 21
208.1940076722
 31
0.0
  0
LINE
  5
F1
330
62
100
AcDbEntity
  8
TANAITA_HONNTAI_
  6
CONTINUOUS
 62
     7
100
AcDbLine
 10
222.9932855929
 20
208.1940076722
 30
0.0
 11
222.9932855929
 21
207.9803880726
 31
0.0
  0
LINE
  5
F2
330
62
100
AcDbEntity
  8
TANAITA_HONNTAI_
  6
CONTINUOUS
 62
     7
100
AcDbLine
 10
222.9932855929
 20
207.9803880726
 30
0.0
 11
222.9932855929
 21
206.9440076722
 31
0.0
  0
LINE
  5
F3
330
62
100
AcDbEntity
  8
TANAITA_HONNTAI_
  6
CONTINUOUS
 62
     7
100
AcDbLine
 10
222.9932855929
 20
206.9440076722
 30
0.0
 11
222.9932855929
 21
206.6440076722
 31
0.0
  0
LINE
  5
F4
330
62
100
AcDbEntity
  8
TANAITA_HONNTAI_
  6
CONTINUOUS
 62
     7
100
AcDbLine
 10
222.9932855929
 20
206.6440076722
 30
0.0
 11
222.9932855929
 21
206.5940076722
 31
0.0
  0
LINE
  5
F5
330
62
100
AcDbEntity
  8
TANAITA_HONNTAI_
  6
CONTINUOUS
 62
     7
100
AcDbLine
 10
222.0332855929
 20
206.5140076722
 30
0.0
 11
222.0032855929
 21
206.5140076722
 31
0.0
  0
LINE
  5
F6
330
62
100
AcDbEntity
  8
TANAITA_HONNTAI_
  6
CONTINUOUS
 62
     7
100
AcDbLine
 10
220.6432855929
 20
206.5140076722
 30
0.0
 11
220.7092197311
 21
206.5140076722
 31
0.0
  0
LINE
  5
F7
330
62
100
AcDbEntity
  8
TANAITA_HONNTAI_
  6
CONTINUOUS
 62
     7
100
AcDbLine
 10
221.7773514547
 20
206.5140076722
 30
0.0
 11
221.8432855929
 21
206.5140076722
 31
0.0
  0
LINE
  5
F8
330
62
100
AcDbEntity
  8
TANAITA_HONNTAI_
  6
CONTINUOUS
 62
     7
100
AcDbLine
 10
222.9732855929
 20
206.9340076722
 30
0.0
 11
222.9732855929
 21
208.0940076722
 31
0.0
  0
LINE
  5
F9
330
62
100
AcDbEntity
  8
TANAITA_HONNTAI_
  6
CONTINUOUS
 62
     7
100
AcDbLine
 10
222.9732855929
 20
206.6440076722
 30
0.0
 11
222.9932855929
 21
206.6440076722
 31
0.0
  0
LINE
  5
FA
330
62
100
AcDbEntity
  8
TANAITA_HONNTAI_
  6
CONTINUOUS
 62
     7
100
AcDbLine
 10
222.9732855929
 20
207.9803880726
 30
0.0
 11
222.9932855929
 21
207.9803880726
 31
0.0
  0
LINE
  5
FB
330
62
100
AcDbEntity
  8
TANAITA_HONNTAI_
  6
CONTINUOUS
 62
     7
100
AcDbLine
 10
222.9732855929
 20
208.1940076722
 30
0.0
 11
222.9932855929
 21
208.1940076722
 31
0.0
  0
ARC
  5
FC
330
62
100
AcDbEntity
  8
TANAITA_HONNTAI_
  6
CONTINUOUS
 62
     7
100
AcDbCircle
 10
222.9132855929
 20
208.4340076722
 30
0.0
 40
0.0800000000000023
100
AcDbArc
 50
0.0
 51
41.4096221093
  0
LINE
  5
FD
330
62
100
AcDbEntity
  8
TANAITA_HONNTAI_
  6
CONTINUOUS
 62
     7
100
AcDbLine
 10
222.9732855929
 20
208.0940076722
 30
0.0
 11
222.9732855929
 21
208.5140076722
 31
0.0
  0
LINE
  5
FE
330
62
100
AcDbEntity
  8
TANAITA_HONNTAI_
  6
CONTINUOUS
 62
     7
100
AcDbLine
 10
222.9732855929
 20
206.5140076722
 30
0.0
 11
222.9732855929
 21
206.9340076722
 31
0.0
  0
ARC
  5
FF
330
62
100
AcDbEntity
  8
TANAITA_HONNTAI_
  6
CONTINUOUS
 62
     7
100
AcDbCircle
 10
222.9132855929
 20
206.5940076722
 30
0.0
 40
0.0800000000000023
100
AcDbArc
 50
318.5903778907
 51
0.0
  0
LINE
  5
101
330
62
100
AcDbEntity
  8
SITYUU_LEFT_001_
  6
CONTINUOUS
 62
     7
100
AcDbLine
 10
153.4532855929
 20
165.2678872047
 30
0.0
 11
153.4532855929
 21
164.5723690746
 31
0.0
  0
ELLIPSE
  5
102
330
62
100
AcDbEntity
  8
SITYUU_LEFT_001_
  6
CONTINUOUS
 62
     7
100
AcDbEllipse
 10
153.2932855929
 20
165.2678872047
 30
0.0
 11
0.159999999999999
 21
0.0
 31
0.0
210
0.0
220
0.0
230
1.0
 40
0.3826834324
 41
0.0
 42
1.18639955229924
  0
LINE
  5
103
330
62
100
AcDbEntity
  8
SITYUU_LEFT_001_
  6
CONTINUOUS
 62
     7
100
AcDbLine
 10
153.4532855929
 20
164.5723690746
 30
0.0
 11
153.4532855929
 21
164.3440076722
 31
0.0
  0
LINE
  5
104
330
62
100
AcDbEntity
  8
SITYUU_LEFT_001_
  6
CONTINUOUS
 62
     7
100
AcDbLine
 10
153.4532855929
 20
164.3440076722
 30
0.0
 11
153.3532855929
 21
164.3440076722
 31
0.0
  0
LINE
  5
106
330
62
100
AcDbEntity
  8
SITYUU_RIGHT_001
  6
CONTINUOUS
 62
     7
100
AcDbLine
 10
223.1932855929
 20
165.2678872047
 30
0.0
 11
223.1932855929
 21
164.5723690746
 31
0.0
  0
ELLIPSE
  5
107
330
62
100
AcDbEntity
  8
SITYUU_RIGHT_001
  6
CONTINUOUS
 62
     7
100
AcDbEllipse
 10
223.3532855929
 20
165.2678872047
 30
0.0
 11
-0.159999999999999
 21
0.0
 31
0.0
210
0.0
220
0.0
230
1.0
 40
0.3826834324
 41
5.096785754880346
 42
6.283185307179586
  0
LINE
  5
108
330
62
100
AcDbEntity
  8
SITYUU_RIGHT_001
  6
CONTINUOUS
 62
     7
100
AcDbLine
 10
223.1932855929
 20
164.5723690746
 30
0.0
 11
223.1932855929
 21
164.3440076722
 31
0.0
  0
LINE
  5
109
330
62
100
AcDbEntity
  8
SITYUU_RIGHT_001
  6
CONTINUOUS
 62
     7
100
AcDbLine
 10
223.1932855929
 20
164.3440076722
 30
0.0
 11
223.2932855929
 21
164.3440076722
 31
0.0
  0
LINE
  5
10B
330
62
100
AcDbEntity
  8
SITYUU_COVER_LEF
  6
CONTINUOUS
 62
     7
100
AcDbLine
 10
153.2732855929
 20
164.3440076722
 30
0.0
 11
153.2764686918
 21
164.3440076722
 31
0.0
  0
ELLIPSE
  5
10C
330
62
100
AcDbEntity
  8
SITYUU_COVER_LEF
  6
CONTINUOUS
 62
     7
100
AcDbEllipse
 10
153.2732855929
 20
164.3440076722
 30
0.0
 11
-0.003183098861803125
 21
0.0
 31
0.0
210
0.0
220
0.0
230
1.0
 40
0.3826834323
 41
3.141590677064362
 42
4.71238898038469
  0
LINE
  5
10D
330
62
100
AcDbEntity
  8
SITYUU_COVER_LEF
  6
CONTINUOUS
 62
     7
100
AcDbLine
 10
153.2764686918
 20
164.3440076722
 30
0.0
 11
153.3532855929
 21
164.3440076722
 31
0.0
  0
ELLIPSE
  5
10E
330
62
100
AcDbEntity
  8
SITYUU_COVER_LEF
  6
CONTINUOUS
 62
     7
100
AcDbEllipse
 10
153.2732855929
 20
164.3440076722
 30
0.0
 11
-0.07999999999994678
 21
0.0
 31
0.0
210
0.0
220
0.0
230
1.0
 40
0.3826834324
 41
3.141592653589793
 42
4.71238898038469
  0
ELLIPSE
  5
10F
330
62
100
AcDbEntity
  8
SITYUU_COVER_LEF
  6
CONTINUOUS
 62
     7
100
AcDbEllipse
 10
153.2732855929
 20
164.3440076722
 30
0.0
 11
-0.003183098861953004
 21
4.163336342344338E-15
 31
0.0
210
0.0
220
0.0
230
1.0
 40
0.3826834324
 41
4.712388980385191
 42
6.283185307179586
  0
LINE
  5
110
330
62
100
AcDbEntity
  8
SITYUU_COVER_LEF
  6
CONTINUOUS
 62
     7
100
AcDbLine
 10
153.2732855929
 20
164.3746223468
 30
0.0
 11
150.0206125809
 21
164.3746223468
 31
0.0
  0
LINE
  5
111
330
62
100
AcDbEntity
  8
SITYUU_COVER_LEF
  6
CONTINUOUS
 62
     7
100
AcDbLine
 10
153.270102494
 20
164.3440076722
 30
0.0
 11
150.0206125809
 21
164.3440076722
 31
0.0
  0
ELLIPSE
  5
112
330
62
100
AcDbEntity
  8
SITYUU_COVER_LEF
  6
CONTINUOUS
 62
     7
100
AcDbEllipse
 10
148.2332855929
 20
164.3440076722
 30
0.0
 11
-0.02011496045263295
 21
0.001925669494963478
 31
0.0
210
0.0
220
0.0
230
0.9999999999999998
 40
0.0254022729
 41
4.453021428619286
 42
6.023817755398807
  0
LINE
  5
113
330
62
100
AcDbEntity
  8
SITYUU_COVER_LEF
  6
CONTINUOUS
 62
     7
100
AcDbLine
 10
149.0546867546
 20
164.351931333
 30
0.0
 11
148.1560115268
 21
164.351931333
 31
0.0
  0
LINE
  5
114
330
62
100
AcDbEntity
  8
SITYUU_COVER_LEF
  6
CONTINUOUS
 62
     7
100
AcDbLine
 10
149.1319608207
 20
164.3440076722
 30
0.0
 11
148.2384917431
 21
164.3440076722
 31
0.0
  0
LINE
  5
115
330
62
100
AcDbEntity
  8
SITYUU_COVER_LEF
  6
CONTINUOUS
 62
     7
100
AcDbLine
 10
148.2332855929
 20
164.3440076722
 30
0.0
 11
148.213170573
 21
164.3440076722
 31
0.0
  0
LINE
  5
116
330
62
100
AcDbEntity
  8
SITYUU_COVER_LEF
  6
CONTINUOUS
 62
     7
100
AcDbLine
 10
148.213170573
 20
164.3440076722
 30
0.0
 11
148.1532855929
 21
164.3440076722
 31
0.0
  0
ELLIPSE
  5
117
330
62
100
AcDbEntity
  8
SITYUU_COVER_LEF
  6
CONTINUOUS
 62
     7
100
AcDbEllipse
 10
148.2332855929
 20
164.3440076722
 30
0.0
 11
-0.02011501993096076
 21
2.775557561562891E-14
 31
0.0
210
0.0
220
0.0
230
1.0
 40
0.3826834324
 41
6.021385919389946
 42
6.2831853071795
  0
LINE
  5
118
330
62
100
AcDbEntity
  8
SITYUU_COVER_LEF
  6
CONTINUOUS
 62
     7
100
AcDbLine
 10
148.2138559756
 20
164.3459999796
 30
0.0
 11
148.1560115268
 21
164.351931333
 31
0.0
  0
ELLIPSE
  5
119
330
62
100
AcDbEntity
  8
SITYUU_COVER_LEF
  6
CONTINUOUS
 62
     7
100
AcDbEllipse
 10
148.2332855929
 20
164.3440076722
 30
0.0
 11
-0.07999999999966367
 21
-2.081668171172169E-14
 31
0.0
210
0.0
220
0.0
230
1.0
 40
0.3826834324
 41
6.021385919379052
 42
6.283185307179586
  0
ARC
  5
11A
330
62
100
AcDbEntity
  8
SITYUU_COVER_LEF
  6
CONTINUOUS
 62
     7
100
AcDbCircle
 10
150.0809592315
 20
141.2353220806
 30
0.0
 40
23.13937895717425
100
AcDbArc
 50
90.1494254585
 51
92.5420032443
  0
ARC
  5
11B
330
62
100
AcDbEntity
  8
SITYUU_COVER_LEF
  6
CONTINUOUS
 62
     7
100
AcDbCircle
 10
149.5762867008
 20
179.7488748976
 30
0.0
 40
15.4112737864719
100
AcDbArc
 50
268.6031100453
 51
271.6521363697
  0
LINE
  5
11C
330
62
100
AcDbEntity
  8
SITYUU_COVER_LEF
  6
CONTINUOUS
 62
     7
100
AcDbLine
 10
148.2384917431
 20
164.3440076722
 30
0.0
 11
148.2332855929
 21
164.3440076722
 31
0.0
  0
ARC
  5
11D
330
62
100
AcDbEntity
  8
SITYUU_COVER_LEF
  6
CONTINUOUS
 62
     7
100
AcDbCircle
 10
148.5340977359
 20
160.4602024323
 30
0.0
 40
3.937784465837267
100
AcDbArc
 50
80.2384597268
 51
81.4695508681
  0
LINE
  5
11F
330
62
100
AcDbEntity
  8
SITYUU_RENKETSU_
  6
CONTINUOUS
 62
     7
100
AcDbLine
 10
223.1932855929
 20
196.5520731045
 30
0.0
 11
223.1932855929
 21
192.4388401283
 31
0.0
  0
LINE
  5
120
330
62
100
AcDbEntity
  8
SITYUU_RENKETSU_
  6
CONTINUOUS
 62
     7
100
AcDbLine
 10
223.1932855929
 20
192.0518603367
 30
0.0
 11
223.1932855929
 21
191.1996036269
 31
0.0
  0
LINE
  5
121
330
62
100
AcDbEntity
  8
SITYUU_RENKETSU_
  6
CONTINUOUS
 62
     7
100
AcDbLine
 10
153.4532855929
 20
191.1800513298
 30
0.0
 11
223.1932855929
 21
191.1800513298
 31
0.0
  0
LINE
  5
122
330
62
100
AcDbEntity
  8
SITYUU_RENKETSU_
  6
CONTINUOUS
 62
     7
100
AcDbLine
 10
223.1932855929
 20
196.7455410157
 30
0.0
 11
153.4532855929
 21
196.7455410157
 31
0.0
  0
LINE
  5
124
330
62
100
AcDbEntity
  8
ADJUSTER_001_SEP
  6
CONTINUOUS
 62
     7
100
AcDbLine
 10
152.9982855929
 20
154.5164128864
 30
0.0
 11
149.1482855929
 21
154.5164128864
 31
0.0
  0
LINE
  5
125
330
62
100
AcDbEntity
  8
ADJUSTER_001_SEP
  6
CONTINUOUS
 62
     7
100
AcDbLine
 10
149.2482855929
 20
153.5164128864
 30
0.0
 11
152.8982855929
 21
153.5164128864
 31
0.0
  0
LINE
  5
126
330
62
100
AcDbEntity
  8
ADJUSTER_001_SEP
  6
CONTINUOUS
 62
     7
100
AcDbLine
 10
152.9924325388
 20
153.6164128864
 30
0.0
 11
152.9982855929
 21
153.6164128864
 31
0.0
  0
LINE
  5
127
330
62
100
AcDbEntity
  8
ADJUSTER_001_SEP
  6
CONTINUOUS
 62
     7
100
AcDbLine
 10
152.9924325388
 20
154.4164128864
 30
0.0
 11
152.9924325388
 21
153.6164128864
 31
0.0
  0
LINE
  5
128
330
62
100
AcDbEntity
  8
ADJUSTER_001_SEP
  6
CONTINUOUS
 62
     7
100
AcDbLine
 10
152.9924325388
 20
154.4164128864
 30
0.0
 11
152.9924325388
 21
153.6164128864
 31
0.0
  0
LINE
  5
129
330
62
100
AcDbEntity
  8
ADJUSTER_001_SEP
  6
CONTINUOUS
 62
     7
100
AcDbLine
 10
152.9924325388
 20
154.4164128864
 30
0.0
 11
152.9982855929
 21
154.4164128864
 31
0.0
  0
LINE
  5
12A
330
62
100
AcDbEntity
  8
ADJUSTER_001_SEP
  6
CONTINUOUS
 62
     7
100
AcDbLine
 10
152.8565165609
 20
154.4164128864
 30
0.0
 11
152.8565165609
 21
153.6164128864
 31
0.0
  0
LINE
  5
12B
330
62
100
AcDbEntity
  8
ADJUSTER_001_SEP
  6
CONTINUOUS
 62
     7
100
AcDbLine
 10
152.8521502524
 20
153.6164128864
 30
0.0
 11
152.9448553507
 21
153.6164128864
 31
0.0
  0
LINE
  5
12C
330
62
100
AcDbEntity
  8
ADJUSTER_001_SEP
  6
CONTINUOUS
 62
     7
100
AcDbLine
 10
152.8521502524
 20
154.4164128864
 30
0.0
 11
152.8521502524
 21
153.6164128864
 31
0.0
  0
LINE
  5
12D
330
62
100
AcDbEntity
  8
ADJUSTER_001_SEP
  6
CONTINUOUS
 62
     7
100
AcDbLine
 10
152.9448553507
 20
154.4164128864
 30
0.0
 11
152.9448553507
 21
153.6164128864
 31
0.0
  0
LINE
  5
12E
330
62
100
AcDbEntity
  8
ADJUSTER_001_SEP
  6
CONTINUOUS
 62
     7
100
AcDbLine
 10
152.8521502524
 20
154.4164128864
 30
0.0
 11
152.9448553507
 21
154.4164128864
 31
0.0
  0
LINE
  5
12F
330
62
100
AcDbEntity
  8
ADJUSTER_001_SEP
  6
CONTINUOUS
 62
     7
100
AcDbLine
 10
152.5901924573
 20
154.4164128864
 30
0.0
 11
152.5901924573
 21
153.6164128864
 31
0.0
  0
LINE
  5
130
330
62
100
AcDbEntity
  8
ADJUSTER_001_SEP
  6
CONTINUOUS
 62
     7
100
AcDbLine
 10
152.537740299
 20
153.6164128864
 30
0.0
 11
152.7140758747
 21
153.6164128864
 31
0.0
  0
LINE
  5
131
330
62
100
AcDbEntity
  8
ADJUSTER_001_SEP
  6
CONTINUOUS
 62
     7
100
AcDbLine
 10
152.537740299
 20
154.4164128864
 30
0.0
 11
152.537740299
 21
153.6164128864
 31
0.0
  0
LINE
  5
132
330
62
100
AcDbEntity
  8
ADJUSTER_001_SEP
  6
CONTINUOUS
 62
     7
100
AcDbLine
 10
152.7140758747
 20
154.4164128864
 30
0.0
 11
152.7140758747
 21
153.6164128864
 31
0.0
  0
LINE
  5
133
330
62
100
AcDbEntity
  8
ADJUSTER_001_SEP
  6
CONTINUOUS
 62
     7
100
AcDbLine
 10
152.537740299
 20
154.4164128864
 30
0.0
 11
152.7140758747
 21
154.4164128864
 31
0.0
  0
LINE
  5
134
330
62
100
AcDbEntity
  8
ADJUSTER_001_SEP
  6
CONTINUOUS
 62
     7
100
AcDbLine
 10
152.1753829409
 20
154.4164128864
 30
0.0
 11
152.1753829409
 21
153.6164128864
 31
0.0
  0
LINE
  5
135
330
62
100
AcDbEntity
  8
ADJUSTER_001_SEP
  6
CONTINUOUS
 62
     7
100
AcDbLine
 10
152.0799793155
 20
153.6164128864
 30
0.0
 11
152.3226844138
 21
153.6164128864
 31
0.0
  0
LINE
  5
136
330
62
100
AcDbEntity
  8
ADJUSTER_001_SEP
  6
CONTINUOUS
 62
     7
100
AcDbLine
 10
152.0799793155
 20
154.4164128864
 30
0.0
 11
152.0799793155
 21
153.6164128864
 31
0.0
  0
LINE
  5
137
330
62
100
AcDbEntity
  8
ADJUSTER_001_SEP
  6
CONTINUOUS
 62
     7
100
AcDbLine
 10
152.3226844138
 20
154.4164128864
 30
0.0
 11
152.3226844138
 21
153.6164128864
 31
0.0
  0
LINE
  5
138
330
62
100
AcDbEntity
  8
ADJUSTER_001_SEP
  6
CONTINUOUS
 62
     7
100
AcDbLine
 10
152.0799793155
 20
154.4164128864
 30
0.0
 11
152.3226844138
 21
154.4164128864
 31
0.0
  0
LINE
  5
139
330
62
100
AcDbEntity
  8
ADJUSTER_001_SEP
  6
CONTINUOUS
 62
     7
100
AcDbLine
 10
151.6526924573
 20
154.4164128864
 30
0.0
 11
151.6526924573
 21
153.6164128864
 31
0.0
  0
LINE
  5
13A
330
62
100
AcDbEntity
  8
ADJUSTER_001_SEP
  6
CONTINUOUS
 62
     7
100
AcDbLine
 10
151.5236761364
 20
153.6164128864
 30
0.0
 11
151.8089930913
 21
153.6164128864
 31
0.0
  0
LINE
  5
13B
330
62
100
AcDbEntity
  8
ADJUSTER_001_SEP
  6
CONTINUOUS
 62
     7
100
AcDbLine
 10
151.5236761364
 20
154.4164128864
 30
0.0
 11
151.5236761364
 21
153.6164128864
 31
0.0
  0
LINE
  5
13C
330
62
100
AcDbEntity
  8
ADJUSTER_001_SEP
  6
CONTINUOUS
 62
     7
100
AcDbLine
 10
151.8089930913
 20
154.4164128864
 30
0.0
 11
151.8089930913
 21
153.6164128864
 31
0.0
  0
LINE
  5
13D
330
62
100
AcDbEntity
  8
ADJUSTER_001_SEP
  6
CONTINUOUS
 62
     7
100
AcDbLine
 10
151.5236761364
 20
154.4164128864
 30
0.0
 11
151.8089930913
 21
154.4164128864
 31
0.0
  0
LINE
  5
13E
330
62
100
AcDbEntity
  8
ADJUSTER_001_SEP
  6
CONTINUOUS
 62
     7
100
AcDbLine
 10
151.0732855929
 20
154.4164128864
 30
0.0
 11
151.0732855929
 21
153.6164128864
 31
0.0
  0
LINE
  5
13F
330
62
100
AcDbEntity
  8
ADJUSTER_001_SEP
  6
CONTINUOUS
 62
     7
100
AcDbLine
 10
150.9232855929
 20
153.6164128864
 30
0.0
 11
151.2232855929
 21
153.6164128864
 31
0.0
  0
LINE
  5
140
330
62
100
AcDbEntity
  8
ADJUSTER_001_SEP
  6
CONTINUOUS
 62
     7
100
AcDbLine
 10
150.9232855929
 20
154.4164128864
 30
0.0
 11
150.9232855929
 21
153.6164128864
 31
0.0
  0
LINE
  5
141
330
62
100
AcDbEntity
  8
ADJUSTER_001_SEP
  6
CONTINUOUS
 62
     7
100
AcDbLine
 10
151.2232855929
 20
154.4164128864
 30
0.0
 11
151.2232855929
 21
153.6164128864
 31
0.0
  0
LINE
  5
142
330
62
100
AcDbEntity
  8
ADJUSTER_001_SEP
  6
CONTINUOUS
 62
     7
100
AcDbLine
 10
150.9232855929
 20
154.4164128864
 30
0.0
 11
151.2232855929
 21
154.4164128864
 31
0.0
  0
LINE
  5
143
330
62
100
AcDbEntity
  8
ADJUSTER_001_SEP
  6
CONTINUOUS
 62
     7
100
AcDbLine
 10
150.4938787284
 20
154.4164128864
 30
0.0
 11
150.4938787284
 21
153.6164128864
 31
0.0
  0
LINE
  5
144
330
62
100
AcDbEntity
  8
ADJUSTER_001_SEP
  6
CONTINUOUS
 62
     7
100
AcDbLine
 10
150.3375780945
 20
153.6164128864
 30
0.0
 11
150.6228950493
 21
153.6164128864
 31
0.0
  0
LINE
  5
145
330
62
100
AcDbEntity
  8
ADJUSTER_001_SEP
  6
CONTINUOUS
 62
     7
100
AcDbLine
 10
150.3375780945
 20
154.4164128864
 30
0.0
 11
150.3375780945
 21
153.6164128864
 31
0.0
  0
LINE
  5
146
330
62
100
AcDbEntity
  8
ADJUSTER_001_SEP
  6
CONTINUOUS
 62
     7
100
AcDbLine
 10
150.6228950493
 20
154.4164128864
 30
0.0
 11
150.6228950493
 21
153.6164128864
 31
0.0
  0
LINE
  5
147
330
62
100
AcDbEntity
  8
ADJUSTER_001_SEP
  6
CONTINUOUS
 62
     7
100
AcDbLine
 10
150.3375780945
 20
154.4164128864
 30
0.0
 11
150.6228950493
 21
154.4164128864
 31
0.0
  0
LINE
  5
148
330
62
100
AcDbEntity
  8
ADJUSTER_001_SEP
  6
CONTINUOUS
 62
     7
100
AcDbLine
 10
149.9711882448
 20
154.4164128864
 30
0.0
 11
149.9711882448
 21
153.6164128864
 31
0.0
  0
LINE
  5
149
330
62
100
AcDbEntity
  8
ADJUSTER_001_SEP
  6
CONTINUOUS
 62
     7
100
AcDbLine
 10
149.8238867719
 20
153.6164128864
 30
0.0
 11
150.0665918703
 21
153.6164128864
 31
0.0
  0
LINE
  5
14A
330
62
100
AcDbEntity
  8
ADJUSTER_001_SEP
  6
CONTINUOUS
 62
     7
100
AcDbLine
 10
149.8238867719
 20
154.4164128864
 30
0.0
 11
149.8238867719
 21
153.6164128864
 31
0.0
  0
LINE
  5
14B
330
62
100
AcDbEntity
  8
ADJUSTER_001_SEP
  6
CONTINUOUS
 62
     7
100
AcDbLine
 10
150.0665918703
 20
154.4164128864
 30
0.0
 11
150.0665918703
 21
153.6164128864
 31
0.0
  0
LINE
  5
14C
330
62
100
AcDbEntity
  8
ADJUSTER_001_SEP
  6
CONTINUOUS
 62
     7
100
AcDbLine
 10
149.8238867719
 20
154.4164128864
 30
0.0
 11
150.0665918703
 21
154.4164128864
 31
0.0
  0
LINE
  5
14D
330
62
100
AcDbEntity
  8
ADJUSTER_001_SEP
  6
CONTINUOUS
 62
     7
100
AcDbLine
 10
149.5563787284
 20
154.4164128864
 30
0.0
 11
149.5563787284
 21
153.6164128864
 31
0.0
  0
LINE
  5
14E
330
62
100
AcDbEntity
  8
ADJUSTER_001_SEP
  6
CONTINUOUS
 62
     7
100
AcDbLine
 10
149.4324953111
 20
153.6164128864
 30
0.0
 11
149.6088308868
 21
153.6164128864
 31
0.0
  0
LINE
  5
14F
330
62
100
AcDbEntity
  8
ADJUSTER_001_SEP
  6
CONTINUOUS
 62
     7
100
AcDbLine
 10
149.4324953111
 20
154.4164128864
 30
0.0
 11
149.4324953111
 21
153.6164128864
 31
0.0
  0
LINE
  5
150
330
62
100
AcDbEntity
  8
ADJUSTER_001_SEP
  6
CONTINUOUS
 62
     7
100
AcDbLine
 10
149.6088308868
 20
154.4164128864
 30
0.0
 11
149.6088308868
 21
153.6164128864
 31
0.0
  0
LINE
  5
151
330
62
100
AcDbEntity
  8
ADJUSTER_001_SEP
  6
CONTINUOUS
 62
     7
100
AcDbLine
 10
149.4324953111
 20
154.4164128864
 30
0.0
 11
149.6088308868
 21
154.4164128864
 31
0.0
  0
LINE
  5
152
330
62
100
AcDbEntity
  8
ADJUSTER_001_SEP
  6
CONTINUOUS
 62
     7
100
AcDbLine
 10
149.2900546248
 20
154.4164128864
 30
0.0
 11
149.2900546248
 21
153.6164128864
 31
0.0
  0
LINE
  5
153
330
62
100
AcDbEntity
  8
ADJUSTER_001_SEP
  6
CONTINUOUS
 62
     7
100
AcDbLine
 10
149.2017158351
 20
153.6164128864
 30
0.0
 11
149.2944209334
 21
153.6164128864
 31
0.0
  0
LINE
  5
154
330
62
100
AcDbEntity
  8
ADJUSTER_001_SEP
  6
CONTINUOUS
 62
     7
100
AcDbLine
 10
149.2017158351
 20
154.4164128864
 30
0.0
 11
149.2017158351
 21
153.6164128864
 31
0.0
  0
LINE
  5
155
330
62
100
AcDbEntity
  8
ADJUSTER_001_SEP
  6
CONTINUOUS
 62
     7
100
AcDbLine
 10
149.2944209334
 20
154.4164128864
 30
0.0
 11
149.2944209334
 21
153.6164128864
 31
0.0
  0
LINE
  5
156
330
62
100
AcDbEntity
  8
ADJUSTER_001_SEP
  6
CONTINUOUS
 62
     7
100
AcDbLine
 10
149.2017158351
 20
154.4164128864
 30
0.0
 11
149.2944209334
 21
154.4164128864
 31
0.0
  0
LINE
  5
157
330
62
100
AcDbEntity
  8
ADJUSTER_001_SEP
  6
CONTINUOUS
 62
     7
100
AcDbLine
 10
149.154138647
 20
153.6164128864
 30
0.0
 11
149.1482855929
 21
153.6164128864
 31
0.0
  0
LINE
  5
158
330
62
100
AcDbEntity
  8
ADJUSTER_001_SEP
  6
CONTINUOUS
 62
     7
100
AcDbLine
 10
149.154138647
 20
154.4164128864
 30
0.0
 11
149.154138647
 21
153.6164128864
 31
0.0
  0
LINE
  5
159
330
62
100
AcDbEntity
  8
ADJUSTER_001_SEP
  6
CONTINUOUS
 62
     7
100
AcDbLine
 10
149.154138647
 20
154.4164128864
 30
0.0
 11
149.1482855929
 21
154.4164128864
 31
0.0
  0
LINE
  5
15A
330
62
100
AcDbEntity
  8
ADJUSTER_001_SEP
  6
CONTINUOUS
 62
     7
100
AcDbLine
 10
151.5732855929
 20
154.5164128864
 30
0.0
 11
151.5732855929
 21
155.4864128864
 31
0.0
  0
LINE
  5
15B
330
62
100
AcDbEntity
  8
ADJUSTER_001_SEP
  6
CONTINUOUS
 62
     7
100
AcDbLine
 10
150.5732855929
 20
155.4864128864
 30
0.0
 11
150.5732855929
 21
154.5164128864
 31
0.0
  0
ARC
  5
15C
330
62
100
AcDbEntity
  8
ADJUSTER_001_SEP
  6
CONTINUOUS
 62
     7
100
AcDbCircle
 10
149.2482855929
 20
153.6164128864
 30
0.0
 40
0.1000000000000001
100
AcDbArc
 50
180.0
 51
270.0
  0
ARC
  5
15D
330
62
100
AcDbEntity
  8
ADJUSTER_001_SEP
  6
CONTINUOUS
 62
     7
100
AcDbCircle
 10
152.8982855929
 20
153.6164128864
 30
0.0
 40
0.1
100
AcDbArc
 50
270.0
 51
0.0
  0
LINE
  5
15E
330
62
100
AcDbEntity
  8
ADJUSTER_001_SEP
  6
CONTINUOUS
 62
     7
100
AcDbLine
 10
152.9982855929
 20
154.4164128864
 30
0.0
 11
152.9982855929
 21
154.5164128864
 31
0.0
  0
LINE
  5
15F
330
62
100
AcDbEntity
  8
ADJUSTER_001_SEP
  6
CONTINUOUS
 62
     7
100
AcDbLine
 10
149.1482855929
 20
154.5164128864
 30
0.0
 11
149.1482855929
 21
154.4164128864
 31
0.0
  0
LINE
  5
160
330
62
100
AcDbEntity
  8
ADJUSTER_001_SEP
  6
CONTINUOUS
 62
     7
100
AcDbLine
 10
227.4982855929
 20
154.5164128864
 30
0.0
 11
223.6482855929
 21
154.5164128864
 31
0.0
  0
LINE
  5
161
330
62
100
AcDbEntity
  8
ADJUSTER_001_SEP
  6
CONTINUOUS
 62
     7
100
AcDbLine
 10
225.4232855929
 20
153.6164128864
 30
0.0
 11
225.7232855929
 21
153.6164128864
 31
0.0
  0
LINE
  5
162
330
62
100
AcDbEntity
  8
ADJUSTER_001_SEP
  6
CONTINUOUS
 62
     7
100
AcDbLine
 10
223.7482855929
 20
153.5164128864
 30
0.0
 11
227.3982855929
 21
153.5164128864
 31
0.0
  0
LINE
  5
163
330
62
100
AcDbEntity
  8
ADJUSTER_001_SEP
  6
CONTINUOUS
 62
     7
100
AcDbLine
 10
225.5732855929
 20
154.4164128864
 30
0.0
 11
225.5732855929
 21
153.6164128864
 31
0.0
  0
LINE
  5
164
330
62
100
AcDbEntity
  8
ADJUSTER_001_SEP
  6
CONTINUOUS
 62
     7
100
AcDbLine
 10
225.4232855929
 20
154.4164128864
 30
0.0
 11
225.4232855929
 21
153.6164128864
 31
0.0
  0
LINE
  5
165
330
62
100
AcDbEntity
  8
ADJUSTER_001_SEP
  6
CONTINUOUS
 62
     7
100
AcDbLine
 10
225.7232855929
 20
154.4164128864
 30
0.0
 11
225.7232855929
 21
153.6164128864
 31
0.0
  0
LINE
  5
166
330
62
100
AcDbEntity
  8
ADJUSTER_001_SEP
  6
CONTINUOUS
 62
     7
100
AcDbLine
 10
225.4232855929
 20
154.4164128864
 30
0.0
 11
225.7232855929
 21
154.4164128864
 31
0.0
  0
LINE
  5
167
330
62
100
AcDbEntity
  8
ADJUSTER_001_SEP
  6
CONTINUOUS
 62
     7
100
AcDbLine
 10
224.9938787284
 20
154.4164128864
 30
0.0
 11
224.9938787284
 21
153.6164128864
 31
0.0
  0
LINE
  5
168
330
62
100
AcDbEntity
  8
ADJUSTER_001_SEP
  6
CONTINUOUS
 62
     7
100
AcDbLine
 10
224.8375780945
 20
153.6164128864
 30
0.0
 11
225.1228950493
 21
153.6164128864
 31
0.0
  0
LINE
  5
169
330
62
100
AcDbEntity
  8
ADJUSTER_001_SEP
  6
CONTINUOUS
 62
     7
100
AcDbLine
 10
224.8375780945
 20
154.4164128864
 30
0.0
 11
224.8375780945
 21
153.6164128864
 31
0.0
  0
LINE
  5
16A
330
62
100
AcDbEntity
  8
ADJUSTER_001_SEP
  6
CONTINUOUS
 62
     7
100
AcDbLine
 10
225.1228950493
 20
154.4164128864
 30
0.0
 11
225.1228950493
 21
153.6164128864
 31
0.0
  0
LINE
  5
16B
330
62
100
AcDbEntity
  8
ADJUSTER_001_SEP
  6
CONTINUOUS
 62
     7
100
AcDbLine
 10
224.8375780945
 20
154.4164128864
 30
0.0
 11
225.1228950493
 21
154.4164128864
 31
0.0
  0
LINE
  5
16C
330
62
100
AcDbEntity
  8
ADJUSTER_001_SEP
  6
CONTINUOUS
 62
     7
100
AcDbLine
 10
224.4711882448
 20
154.4164128864
 30
0.0
 11
224.4711882448
 21
153.6164128864
 31
0.0
  0
LINE
  5
16D
330
62
100
AcDbEntity
  8
ADJUSTER_001_SEP
  6
CONTINUOUS
 62
     7
100
AcDbLine
 10
224.3238867719
 20
153.6164128864
 30
0.0
 11
224.5665918703
 21
153.6164128864
 31
0.0
  0
LINE
  5
16E
330
62
100
AcDbEntity
  8
ADJUSTER_001_SEP
  6
CONTINUOUS
 62
     7
100
AcDbLine
 10
224.3238867719
 20
154.4164128864
 30
0.0
 11
224.3238867719
 21
153.6164128864
 31
0.0
  0
LINE
  5
16F
330
62
100
AcDbEntity
  8
ADJUSTER_001_SEP
  6
CONTINUOUS
 62
     7
100
AcDbLine
 10
224.5665918703
 20
154.4164128864
 30
0.0
 11
224.5665918703
 21
153.6164128864
 31
0.0
  0
LINE
  5
170
330
62
100
AcDbEntity
  8
ADJUSTER_001_SEP
  6
CONTINUOUS
 62
     7
100
AcDbLine
 10
224.3238867719
 20
154.4164128864
 30
0.0
 11
224.5665918703
 21
154.4164128864
 31
0.0
  0
LINE
  5
171
330
62
100
AcDbEntity
  8
ADJUSTER_001_SEP
  6
CONTINUOUS
 62
     7
100
AcDbLine
 10
224.0563787284
 20
154.4164128864
 30
0.0
 11
224.0563787284
 21
153.6164128864
 31
0.0
  0
LINE
  5
172
330
62
100
AcDbEntity
  8
ADJUSTER_001_SEP
  6
CONTINUOUS
 62
     7
100
AcDbLine
 10
223.9324953111
 20
153.6164128864
 30
0.0
 11
224.1088308868
 21
153.6164128864
 31
0.0
  0
LINE
  5
173
330
62
100
AcDbEntity
  8
ADJUSTER_001_SEP
  6
CONTINUOUS
 62
     7
100
AcDbLine
 10
223.9324953111
 20
154.4164128864
 30
0.0
 11
223.9324953111
 21
153.6164128864
 31
0.0
  0
LINE
  5
174
330
62
100
AcDbEntity
  8
ADJUSTER_001_SEP
  6
CONTINUOUS
 62
     7
100
AcDbLine
 10
224.1088308868
 20
154.4164128864
 30
0.0
 11
224.1088308868
 21
153.6164128864
 31
0.0
  0
LINE
  5
175
330
62
100
AcDbEntity
  8
ADJUSTER_001_SEP
  6
CONTINUOUS
 62
     7
100
AcDbLine
 10
223.9324953111
 20
154.4164128864
 30
0.0
 11
224.1088308868
 21
154.4164128864
 31
0.0
  0
LINE
  5
176
330
62
100
AcDbEntity
  8
ADJUSTER_001_SEP
  6
CONTINUOUS
 62
     7
100
AcDbLine
 10
223.7900546248
 20
154.4164128864
 30
0.0
 11
223.7900546248
 21
153.6164128864
 31
0.0
  0
LINE
  5
177
330
62
100
AcDbEntity
  8
ADJUSTER_001_SEP
  6
CONTINUOUS
 62
     7
100
AcDbLine
 10
223.7017158351
 20
153.6164128864
 30
0.0
 11
223.7944209334
 21
153.6164128864
 31
0.0
  0
LINE
  5
178
330
62
100
AcDbEntity
  8
ADJUSTER_001_SEP
  6
CONTINUOUS
 62
     7
100
AcDbLine
 10
223.7017158351
 20
154.4164128864
 30
0.0
 11
223.7017158351
 21
153.6164128864
 31
0.0
  0
LINE
  5
179
330
62
100
AcDbEntity
  8
ADJUSTER_001_SEP
  6
CONTINUOUS
 62
     7
100
AcDbLine
 10
223.7944209334
 20
154.4164128864
 30
0.0
 11
223.7944209334
 21
153.6164128864
 31
0.0
  0
LINE
  5
17A
330
62
100
AcDbEntity
  8
ADJUSTER_001_SEP
  6
CONTINUOUS
 62
     7
100
AcDbLine
 10
223.7017158351
 20
154.4164128864
 30
0.0
 11
223.7944209334
 21
154.4164128864
 31
0.0
  0
LINE
  5
17B
330
62
100
AcDbEntity
  8
ADJUSTER_001_SEP
  6
CONTINUOUS
 62
     7
100
AcDbLine
 10
223.654138647
 20
153.6164128864
 30
0.0
 11
223.6482855929
 21
153.6164128864
 31
0.0
  0
LINE
  5
17C
330
62
100
AcDbEntity
  8
ADJUSTER_001_SEP
  6
CONTINUOUS
 62
     7
100
AcDbLine
 10
223.654138647
 20
154.4164128864
 30
0.0
 11
223.654138647
 21
153.6164128864
 31
0.0
  0
LINE
  5
17D
330
62
100
AcDbEntity
  8
ADJUSTER_001_SEP
  6
CONTINUOUS
 62
     7
100
AcDbLine
 10
223.654138647
 20
154.4164128864
 30
0.0
 11
223.6482855929
 21
154.4164128864
 31
0.0
  0
LINE
  5
17E
330
62
100
AcDbEntity
  8
ADJUSTER_001_SEP
  6
CONTINUOUS
 62
     7
100
AcDbLine
 10
227.4924325388
 20
153.6164128864
 30
0.0
 11
227.4982855929
 21
153.6164128864
 31
0.0
  0
LINE
  5
17F
330
62
100
AcDbEntity
  8
ADJUSTER_001_SEP
  6
CONTINUOUS
 62
     7
100
AcDbLine
 10
227.4924325388
 20
154.4164128864
 30
0.0
 11
227.4924325388
 21
153.6164128864
 31
0.0
  0
LINE
  5
180
330
62
100
AcDbEntity
  8
ADJUSTER_001_SEP
  6
CONTINUOUS
 62
     7
100
AcDbLine
 10
227.4924325388
 20
154.4164128864
 30
0.0
 11
227.4924325388
 21
153.6164128864
 31
0.0
  0
LINE
  5
181
330
62
100
AcDbEntity
  8
ADJUSTER_001_SEP
  6
CONTINUOUS
 62
     7
100
AcDbLine
 10
227.4924325388
 20
154.4164128864
 30
0.0
 11
227.4982855929
 21
154.4164128864
 31
0.0
  0
LINE
  5
182
330
62
100
AcDbEntity
  8
ADJUSTER_001_SEP
  6
CONTINUOUS
 62
     7
100
AcDbLine
 10
227.3565165609
 20
154.4164128864
 30
0.0
 11
227.3565165609
 21
153.6164128864
 31
0.0
  0
LINE
  5
183
330
62
100
AcDbEntity
  8
ADJUSTER_001_SEP
  6
CONTINUOUS
 62
     7
100
AcDbLine
 10
227.3521502524
 20
153.6164128864
 30
0.0
 11
227.4448553507
 21
153.6164128864
 31
0.0
  0
LINE
  5
184
330
62
100
AcDbEntity
  8
ADJUSTER_001_SEP
  6
CONTINUOUS
 62
     7
100
AcDbLine
 10
227.3521502524
 20
154.4164128864
 30
0.0
 11
227.3521502524
 21
153.6164128864
 31
0.0
  0
LINE
  5
185
330
62
100
AcDbEntity
  8
ADJUSTER_001_SEP
  6
CONTINUOUS
 62
     7
100
AcDbLine
 10
227.4448553507
 20
154.4164128864
 30
0.0
 11
227.4448553507
 21
153.6164128864
 31
0.0
  0
LINE
  5
186
330
62
100
AcDbEntity
  8
ADJUSTER_001_SEP
  6
CONTINUOUS
 62
     7
100
AcDbLine
 10
227.3521502524
 20
154.4164128864
 30
0.0
 11
227.4448553507
 21
154.4164128864
 31
0.0
  0
LINE
  5
187
330
62
100
AcDbEntity
  8
ADJUSTER_001_SEP
  6
CONTINUOUS
 62
     7
100
AcDbLine
 10
227.0901924573
 20
154.4164128864
 30
0.0
 11
227.0901924573
 21
153.6164128864
 31
0.0
  0
LINE
  5
188
330
62
100
AcDbEntity
  8
ADJUSTER_001_SEP
  6
CONTINUOUS
 62
     7
100
AcDbLine
 10
227.037740299
 20
153.6164128864
 30
0.0
 11
227.2140758747
 21
153.6164128864
 31
0.0
  0
LINE
  5
189
330
62
100
AcDbEntity
  8
ADJUSTER_001_SEP
  6
CONTINUOUS
 62
     7
100
AcDbLine
 10
227.037740299
 20
154.4164128864
 30
0.0
 11
227.037740299
 21
153.6164128864
 31
0.0
  0
LINE
  5
18A
330
62
100
AcDbEntity
  8
ADJUSTER_001_SEP
  6
CONTINUOUS
 62
     7
100
AcDbLine
 10
227.2140758747
 20
154.4164128864
 30
0.0
 11
227.2140758747
 21
153.6164128864
 31
0.0
  0
LINE
  5
18B
330
62
100
AcDbEntity
  8
ADJUSTER_001_SEP
  6
CONTINUOUS
 62
     7
100
AcDbLine
 10
227.037740299
 20
154.4164128864
 30
0.0
 11
227.2140758747
 21
154.4164128864
 31
0.0
  0
LINE
  5
18C
330
62
100
AcDbEntity
  8
ADJUSTER_001_SEP
  6
CONTINUOUS
 62
     7
100
AcDbLine
 10
226.6753829409
 20
154.4164128864
 30
0.0
 11
226.6753829409
 21
153.6164128864
 31
0.0
  0
LINE
  5
18D
330
62
100
AcDbEntity
  8
ADJUSTER_001_SEP
  6
CONTINUOUS
 62
     7
100
AcDbLine
 10
226.5799793155
 20
153.6164128864
 30
0.0
 11
226.8226844138
 21
153.6164128864
 31
0.0
  0
LINE
  5
18E
330
62
100
AcDbEntity
  8
ADJUSTER_001_SEP
  6
CONTINUOUS
 62
     7
100
AcDbLine
 10
226.5799793155
 20
154.4164128864
 30
0.0
 11
226.5799793155
 21
153.6164128864
 31
0.0
  0
LINE
  5
18F
330
62
100
AcDbEntity
  8
ADJUSTER_001_SEP
  6
CONTINUOUS
 62
     7
100
AcDbLine
 10
226.8226844138
 20
154.4164128864
 30
0.0
 11
226.8226844138
 21
153.6164128864
 31
0.0
  0
LINE
  5
190
330
62
100
AcDbEntity
  8
ADJUSTER_001_SEP
  6
CONTINUOUS
 62
     7
100
AcDbLine
 10
226.5799793155
 20
154.4164128864
 30
0.0
 11
226.8226844138
 21
154.4164128864
 31
0.0
  0
LINE
  5
191
330
62
100
AcDbEntity
  8
ADJUSTER_001_SEP
  6
CONTINUOUS
 62
     7
100
AcDbLine
 10
226.1526924573
 20
154.4164128864
 30
0.0
 11
226.1526924573
 21
153.6164128864
 31
0.0
  0
LINE
  5
192
330
62
100
AcDbEntity
  8
ADJUSTER_001_SEP
  6
CONTINUOUS
 62
     7
100
AcDbLine
 10
226.0236761364
 20
153.6164128864
 30
0.0
 11
226.3089930913
 21
153.6164128864
 31
0.0
  0
LINE
  5
193
330
62
100
AcDbEntity
  8
ADJUSTER_001_SEP
  6
CONTINUOUS
 62
     7
100
AcDbLine
 10
226.0236761364
 20
154.4164128864
 30
0.0
 11
226.0236761364
 21
153.6164128864
 31
0.0
  0
LINE
  5
194
330
62
100
AcDbEntity
  8
ADJUSTER_001_SEP
  6
CONTINUOUS
 62
     7
100
AcDbLine
 10
226.3089930913
 20
154.4164128864
 30
0.0
 11
226.3089930913
 21
153.6164128864
 31
0.0
  0
LINE
  5
195
330
62
100
AcDbEntity
  8
ADJUSTER_001_SEP
  6
CONTINUOUS
 62
     7
100
AcDbLine
 10
226.0236761364
 20
154.4164128864
 30
0.0
 11
226.3089930913
 21
154.4164128864
 31
0.0
  0
LINE
  5
196
330
62
100
AcDbEntity
  8
ADJUSTER_001_SEP
  6
CONTINUOUS
 62
     7
100
AcDbLine
 10
226.0732855929
 20
154.5164128864
 30
0.0
 11
226.0732855929
 21
155.4864128864
 31
0.0
  0
LINE
  5
197
330
62
100
AcDbEntity
  8
ADJUSTER_001_SEP
  6
CONTINUOUS
 62
     7
100
AcDbLine
 10
225.0732855929
 20
155.4864128864
 30
0.0
 11
225.0732855929
 21
154.5164128864
 31
0.0
  0
ARC
  5
198
330
62
100
AcDbEntity
  8
ADJUSTER_001_SEP
  6
CONTINUOUS
 62
     7
100
AcDbCircle
 10
223.7482855929
 20
153.6164128864
 30
0.0
 40
0.1000000000000001
100
AcDbArc
 50
180.0
 51
270.0
  0
ARC
  5
199
330
62
100
AcDbEntity
  8
ADJUSTER_001_SEP
  6
CONTINUOUS
 62
     7
100
AcDbCircle
 10
227.3982855929
 20
153.6164128864
 30
0.0
 40
0.1
100
AcDbArc
 50
270.0
 51
0.0
  0
LINE
  5
19A
330
62
100
AcDbEntity
  8
ADJUSTER_001_SEP
  6
CONTINUOUS
 62
     7
100
AcDbLine
 10
227.4982855929
 20
154.4164128864
 30
0.0
 11
227.4982855929
 21
154.5164128864
 31
0.0
  0
LINE
  5
19B
330
62
100
AcDbEntity
  8
ADJUSTER_001_SEP
  6
CONTINUOUS
 62
     7
100
AcDbLine
 10
223.6482855929
 20
154.5164128864
 30
0.0
 11
223.6482855929
 21
154.4164128864
 31
0.0
  0
LINE
  5
19D
330
62
100
AcDbEntity
  8
STOPPER_FRONT_PE
  6
CONTINUOUS
 62
     7
100
AcDbLine
 10
153.1232855929
 20
163.733543938
 30
0.0
 11
153.1232855929
 21
161.712501058
 31
0.0
  0
LINE
  5
19E
330
62
100
AcDbEntity
  8
STOPPER_FRONT_PE
  6
CONTINUOUS
 62
     7
100
AcDbLine
 10
153.1232855929
 20
163.733543938
 30
0.0
 11
149.8232855929
 21
163.733543938
 31
0.0
  0
LINE
  5
19F
330
62
100
AcDbEntity
  8
STOPPER_FRONT_PE
  6
CONTINUOUS
 62
     7
100
AcDbLine
 10
149.8232855929
 20
163.733543938
 30
0.0
 11
149.8232855929
 21
161.712501058
 31
0.0
  0
LINE
  5
1A0
330
62
100
AcDbEntity
  8
STOPPER_FRONT_PE
  6
CONTINUOUS
 62
     7
100
AcDbLine
 10
153.1232855929
 20
161.3133461831
 30
0.0
 11
153.1232855929
 21
155.9364128864
 31
0.0
  0
LINE
  5
1A1
330
62
100
AcDbEntity
  8
STOPPER_FRONT_PE
  6
CONTINUOUS
 62
     7
100
AcDbLine
 10
149.8232855929
 20
161.3133461831
 30
0.0
 11
149.8232855929
 21
155.9364128864
 31
0.0
  0
LINE
  5
1A2
330
62
100
AcDbEntity
  8
STOPPER_FRONT_PE
  6
CONTINUOUS
 62
     7
100
AcDbLine
 10
153.1232855929
 20
161.3133461831
 30
0.0
 11
153.1232855929
 21
161.712501058
 31
0.0
  0
LINE
  5
1A3
330
62
100
AcDbEntity
  8
STOPPER_FRONT_PE
  6
CONTINUOUS
 62
     7
100
AcDbLine
 10
149.8232855929
 20
161.712501058
 30
0.0
 11
149.8232855929
 21
161.3133461831
 31
0.0
  0
LINE
  5
1A4
330
62
100
AcDbEntity
  8
STOPPER_FRONT_PE
  6
CONTINUOUS
 62
     7
100
AcDbLine
 10
149.8232855929
 20
155.9364128864
 30
0.0
 11
149.8232855929
 21
155.4864128864
 31
0.0
  0
LINE
  5
1A5
330
62
100
AcDbEntity
  8
STOPPER_FRONT_PE
  6
CONTINUOUS
 62
     7
100
AcDbLine
 10
153.1232855929
 20
155.9364128864
 30
0.0
 11
153.1232855929
 21
155.4864128864
 31
0.0
  0
LINE
  5
1A6
330
62
100
AcDbEntity
  8
STOPPER_FRONT_PE
  6
CONTINUOUS
 62
     7
100
AcDbLine
 10
149.8232855929
 20
155.4864128864
 30
0.0
 11
153.1232855929
 21
155.4864128864
 31
0.0
  0
LINE
  5
1A7
330
62
100
AcDbEntity
  8
STOPPER_FRONT_PE
  6
CONTINUOUS
 62
     7
100
AcDbLine
 10
149.8232855929
 20
164.1954837042
 30
0.0
 11
149.8232855929
 21
163.733543938
 31
0.0
  0
ELLIPSE
  5
1A8
330
62
100
AcDbEntity
  8
STOPPER_FRONT_PE
  6
CONTINUOUS
 62
     7
100
AcDbEllipse
 10
149.8232855929
 20
164.0232761597
 30
0.0
 11
0.4499999999999949
 21
-1.387778780781446E-15
 31
0.0
210
0.0
220
0.0
230
1.0
 40
0.3826834324
 41
1.570796326794898
 42
3.141592653589801
  0
LINE
  5
1A9
330
62
100
AcDbEntity
  8
STOPPER_FRONT_PE
  6
CONTINUOUS
 62
     7
100
AcDbLine
 10
149.3732855929
 20
164.0232761597
 30
0.0
 11
149.3732855929
 21
164.3389403261
 31
0.0
  0
LINE
  5
1AA
330
62
100
AcDbEntity
  8
STOPPER_FRONT_PE
  6
CONTINUOUS
 62
     7
100
AcDbLine
 10
153.1232855929
 20
164.3440076722
 30
0.0
 11
153.1232855929
 21
163.733543938
 31
0.0
  0
LINE
  5
1AB
330
62
100
AcDbEntity
  8
STOPPER_FRONT_PE
  6
CONTINUOUS
 62
     7
100
AcDbLine
 10
149.3732855929
 20
163.5831902124
 30
0.0
 11
149.3732855929
 21
164.0232761597
 31
0.0
  0
LINE
  5
1AC
330
62
100
AcDbEntity
  8
STOPPER_FRONT_PE
  6
CONTINUOUS
 62
     7
100
AcDbLine
 10
149.3732855929
 20
163.5831902124
 30
0.0
 11
149.3732855929
 21
163.5679661189
 31
0.0
  0
LINE
  5
1AD
330
62
100
AcDbEntity
  8
STOPPER_FRONT_PE
  6
CONTINUOUS
 62
     7
100
AcDbLine
 10
149.3732855929
 20
163.5679661189
 30
0.0
 11
149.8232855929
 21
163.5679661189
 31
0.0
  0
LINE
  5
1AF
330
62
100
AcDbEntity
  8
STOPPER_DKARU_00
  6
CONTINUOUS
 62
     7
100
AcDbLine
 10
153.4732855929
 20
186.8914164694
 30
0.0
 11
153.4732855929
 21
172.3368075352
 31
0.0
  0
LINE
  5
1B0
330
62
100
AcDbEntity
  8
STOPPER_DKARU_00
  6
CONTINUOUS
 62
     7
100
AcDbLine
 10
153.4732855929
 20
187.0159629319
 30
0.0
 11
153.4732855929
 21
187.0148797809
 31
0.0
  0
LINE
  5
1B1
330
62
100
AcDbEntity
  8
STOPPER_DKARU_00
  6
CONTINUOUS
 62
     7
100
AcDbLine
 10
153.4732855929
 20
187.0148797809
 30
0.0
 11
153.4732855929
 21
186.8914164694
 31
0.0
  0
LINE
  5
1B2
330
62
100
AcDbEntity
  8
STOPPER_DKARU_00
  6
CONTINUOUS
 62
     7
100
AcDbLine
 10
153.4732855929
 20
187.0159629339
 30
0.0
 11
153.4532855929
 21
187.0159629339
 31
0.0
  0
LINE
  5
1B4
330
62
100
AcDbEntity
  8
KAITENNJIKU_001_
  6
CONTINUOUS
 62
     7
100
AcDbLine
 10
153.7532855929
 20
167.8900403842
 30
0.0
 11
153.7532855929
 21
169.1900403842
 31
0.0
  0
LINE
  5
1B5
330
62
100
AcDbEntity
  8
KAITENNJIKU_001_
  6
CONTINUOUS
 62
     7
100
AcDbLine
 10
153.7032855929
 20
169.2400403842
 30
0.0
 11
153.7032855929
 21
167.8400403842
 31
0.0
  0
LINE
  5
1B6
330
62
100
AcDbEntity
  8
KAITENNJIKU_001_
  6
CONTINUOUS
 62
     7
100
AcDbLine
 10
153.4532855929
 20
167.8400403842
 30
0.0
 11
153.7032855929
 21
167.8400403842
 31
0.0
  0
LINE
  5
1B7
330
62
100
AcDbEntity
  8
KAITENNJIKU_001_
  6
CONTINUOUS
 62
     7
100
AcDbLine
 10
153.7032855929
 20
169.2400403842
 30
0.0
 11
153.4532855929
 21
169.2400403842
 31
0.0
  0
LINE
  5
1B8
330
62
100
AcDbEntity
  8
KAITENNJIKU_001_
  6
CONTINUOUS
 62
     7
100
AcDbLine
 10
153.7032855929
 20
167.8400403842
 30
0.0
 11
153.7532855929
 21
167.8900403842
 31
0.0
  0
LINE
  5
1B9
330
62
100
AcDbEntity
  8
KAITENNJIKU_001_
  6
CONTINUOUS
 62
     7
100
AcDbLine
 10
153.7532855929
 20
169.1900403842
 30
0.0
 11
153.7032855929
 21
169.2400403842
 31
0.0
  0
LINE
  5
1BA
330
62
100
AcDbEntity
  8
KAITENNJIKU_001_
  6
CONTINUOUS
 62
     7
100
AcDbLine
 10
222.8932855929
 20
169.1900403842
 30
0.0
 11
222.8932855929
 21
167.8900403842
 31
0.0
  0
LINE
  5
1BB
330
62
100
AcDbEntity
  8
KAITENNJIKU_001_
  6
CONTINUOUS
 62
     7
100
AcDbLine
 10
222.9432855929
 20
167.8400403842
 30
0.0
 11
222.9432855929
 21
169.2400403842
 31
0.0
  0
LINE
  5
1BC
330
62
100
AcDbEntity
  8
KAITENNJIKU_001_
  6
CONTINUOUS
 62
     7
100
AcDbLine
 10
223.1932855929
 20
169.2400403842
 30
0.0
 11
222.9432855929
 21
169.2400403842
 31
0.0
  0
LINE
  5
1BD
330
62
100
AcDbEntity
  8
KAITENNJIKU_001_
  6
CONTINUOUS
 62
     7
100
AcDbLine
 10
222.9432855929
 20
167.8400403842
 30
0.0
 11
223.1932855929
 21
167.8400403842
 31
0.0
  0
LINE
  5
1BE
330
62
100
AcDbEntity
  8
KAITENNJIKU_001_
  6
CONTINUOUS
 62
     7
100
AcDbLine
 10
222.9432855929
 20
169.2400403842
 30
0.0
 11
222.8932855929
 21
169.1900403842
 31
0.0
  0
LINE
  5
1BF
330
62
100
AcDbEntity
  8
KAITENNJIKU_001_
  6
CONTINUOUS
 62
     7
100
AcDbLine
 10
222.8932855929
 20
167.8900403842
 30
0.0
 11
222.9432855929
 21
167.8400403842
 31
0.0
  0
LINE
  5
1C1
330
62
100
AcDbEntity
  8
RIBETTO_001_SEP-
  6
CONTINUOUS
 62
     7
100
AcDbLine
 10
153.4032855929
 20
172.4323242848
 30
0.0
 11
153.4032855929
 21
171.0323242848
 31
0.0
  0
ELLIPSE
  5
1C2
330
62
100
AcDbEntity
  8
RIBETTO_001_SEP-
  6
CONTINUOUS
 62
     7
100
AcDbEllipse
 10
152.5656204556
 20
171.732324285
 30
0.0
 11
-7.462680473580008E-9
 21
1.10048147239529
 31
0.0
210
0.0
220
0.0
230
1.0
 40
0.9848077524
 41
4.823205766256666
 42
4.874362209417439
  0
SPLINE
  5
1C3
330
62
100
AcDbEntity
  8
RIBETTO_001_SEP-
  6
CONTINUOUS
 62
     7
100
AcDbSpline
210
0.0
220
0.0
230
1.0
 70
     8
 71
     3
 72
    10
 73
     6
 74
     0
 42
0.0000002344852705
 43
0.0000000001
 40
0.0
 40
0.0
 40
0.0
 40
0.0
 40
0.5
 40
0.5
 40
1.0
 40
1.0
 40
1.0
 40
1.0
 10
153.6351977594711
 20
171.8226087383746
 30
0.0
 10
153.6335155256929
 20
171.8223121151717
 30
0.0
 10
153.6320817323584
 20
171.8177131455821
 30
0.0
 10
153.6304300057194
 20
171.8026257832411
 30
0.0
 10
153.6302188946114
 20
171.7922738590437
 30
0.0
 10
153.6306849754677
 20
171.781694577144
 30
0.0
  0
ARC
  5
1C4
330
62
100
AcDbEntity
  8
RIBETTO_001_SEP-
  6
CONTINUOUS
 62
     7
100
AcDbCircle
 10
152.5100591597
 20
171.7323242848
 30
0.0
 40
1.121712817376348
100
AcDbArc
 50
357.4774082831
 51
2.5225917169
  0
SPLINE
  5
1C5
330
62
100
AcDbEntity
  8
RIBETTO_001_SEP-
  6
CONTINUOUS
 62
     7
100
AcDbSpline
210
0.0
220
0.0
230
1.0
 70
     8
 71
     3
 72
    10
 73
     6
 74
     0
 42
0.0000002344868897
 43
0.0000000001
 40
0.0
 40
0.0
 40
0.0
 40
0.0
 40
0.5
 40
0.5
 40
1.0
 40
1.0
 40
1.0
 40
1.0
 10
153.6306849754677
 20
171.682953992536
 30
0.0
 10
153.6302189679859
 20
171.6723763761193
 30
0.0
 10
153.6304319127944
 20
171.6619908697829
 30
0.0
 10
153.6320842355177
 20
171.6469270951314
 30
0.0
 10
153.6335158188739
 20
171.6423364028126
 30
0.0
 10
153.6351977594711
 20
171.6420398313054
 30
0.0
  0
SPLINE
  5
1C6
330
62
100
AcDbEntity
  8
RIBETTO_001_SEP-
  6
CONTINUOUS
 62
     7
100
AcDbSpline
210
0.0
220
0.0
230
1.0
 70
     8
 71
     3
 72
    10
 73
     6
 74
     0
 42
0.0000003235086369
 43
0.0000000001
 40
0.0
 40
0.0
 40
0.0
 40
0.0
 40
0.4999999999999996
 40
0.4999999999999996
 40
1.0
 40
1.0
 40
1.0
 40
1.0
 10
153.6427354493284
 20
171.6106219064719
 30
0.0
 10
153.6435979401161
 20
171.6184926281202
 30
0.0
 10
153.6440871522644
 20
171.6261886446289
 30
0.0
 10
153.6440862951446
 20
171.6372543460522
 30
0.0
 10
153.6435979278295
 20
171.6405586549813
 30
0.0
 10
153.6427354493284
 20
171.6407107332114
 30
0.0
  0
ELLIPSE
  5
1C7
330
62
100
AcDbEntity
  8
RIBETTO_001_SEP-
  6
CONTINUOUS
 62
     7
100
AcDbEllipse
 10
152.5656204551
 20
171.7323242847
 30
0.0
 11
-4.463523994857611E-9
 21
-1.10048147268266
 31
0.0
210
0.0
220
0.0
230
1.0
 40
0.9848077526
 41
1.408823095050356
 42
1.459979538198166
  0
ARC
  5
1C8
330
62
100
AcDbEntity
  8
RIBETTO_001_SEP-
  6
CONTINUOUS
 62
     7
100
AcDbCircle
 10
153.8478208469
 20
171.5105325954
 30
0.0
 40
0.2171934041124857
100
AcDbArc
 50
168.2252423993
 51
178.6811927476
  0
ELLIPSE
  5
1C9
330
62
100
AcDbEntity
  8
RIBETTO_001_SEP-
  6
CONTINUOUS
 62
     7
100
AcDbEllipse
 10
153.6229264022
 20
171.642368897
 30
0.0
 11
0.003472963553763364
 21
0.01969615506017542
 31
0.0
210
0.0
220
0.0
230
0.9999999999999999
 40
0.9938661003
 41
4.802853940126441
 42
6.042107870023012
  0
LINE
  5
1CA
330
62
100
AcDbEntity
  8
RIBETTO_001_SEP-
  6
CONTINUOUS
 62
     7
100
AcDbLine
 10
153.5285534134
 20
172.2423242848
 30
0.0
 11
153.5285534134
 21
171.2223242848
 31
0.0
  0
LINE
  5
1CB
330
62
100
AcDbEntity
  8
RIBETTO_001_SEP-
  6
CONTINUOUS
 62
     7
100
AcDbLine
 10
153.5336916006
 20
172.2323242848
 30
0.0
 11
153.5336916006
 21
171.2323242848
 31
0.0
  0
ARC
  5
1CC
330
62
100
AcDbEntity
  8
RIBETTO_001_SEP-
  6
CONTINUOUS
 62
     7
100
AcDbCircle
 10
152.5482855929
 20
171.7323242848
 30
0.0
 40
1.105
100
AcDbArc
 50
27.4864262504
 51
39.3076481161
  0
ARC
  5
1CD
330
62
100
AcDbEntity
  8
RIBETTO_001_SEP-
  6
CONTINUOUS
 62
     7
100
AcDbCircle
 10
152.5482855929
 20
171.7323242848
 30
0.0
 40
1.105000000000002
100
AcDbArc
 50
320.6923518839
 51
332.5135737496
  0
LINE
  5
1CE
330
62
100
AcDbEntity
  8
RIBETTO_001_SEP-
  6
CONTINUOUS
 62
     7
100
AcDbLine
 10
153.3532855929
 20
171.0323242848
 30
0.0
 11
153.4032855929
 21
171.0323242848
 31
0.0
  0
LINE
  5
1CF
330
62
100
AcDbEntity
  8
RIBETTO_001_SEP-
  6
CONTINUOUS
 62
     7
100
AcDbLine
 10
153.4032855929
 20
172.4323242848
 30
0.0
 11
153.3532855929
 21
172.4323242848
 31
0.0
  0
ARC
  5
1D0
330
62
100
AcDbEntity
  8
RIBETTO_001_SEP-
  6
CONTINUOUS
 62
     7
100
AcDbCircle
 10
153.6121613477
 20
171.9453815031
 30
0.0
 40
0.0200000000000011
100
AcDbArc
 50
354.8175224393
 51
11.3245383951
  0
SPLINE
  5
1D1
330
62
100
AcDbEntity
  8
RIBETTO_001_SEP-
  6
CONTINUOUS
 62
     7
100
AcDbSpline
210
0.0
220
0.0
230
1.0
 70
     8
 71
     3
 72
    12
 73
     8
 74
     0
 42
0.0000002020104314
 43
0.0000000001
 40
0.0
 40
0.0
 40
0.0
 40
0.0
 40
0.0890465567410033
 40
0.2900465495671982
 40
0.4884372344444334
 40
0.6109373492308354
 40
0.6774915954754759
 40
0.6774915954754759
 40
0.6774915954754759
 40
0.6774915954754759
 10
153.6351845818626
 20
171.9104706038665
 30
0.0
 10
153.6348126700026
 20
171.912749869956
 30
0.0
 10
153.6337736564857
 20
171.9191407940448
 30
0.0
 10
153.6322269824972
 20
171.9301329872238
 30
0.0
 10
153.6311832339045
 20
171.9389428384068
 30
0.0
 10
153.6308674625234
 20
171.9429009252574
 30
0.0
 10
153.630852534431
 20
171.9436988993529
 30
0.0
 10
153.6308521830202
 20
171.943686405485
 30
0.0
  0
SPLINE
  5
1D2
330
62
100
AcDbEntity
  8
RIBETTO_001_SEP-
  6
CONTINUOUS
 62
     7
100
AcDbSpline
210
0.0
220
0.0
230
1.0
 70
     8
 71
     3
 72
    15
 73
    11
 74
     0
 42
0.0000001708132453
 43
0.0000000001
 40
0.1238161199986714
 40
0.1238161199986714
 40
0.1238161199986714
 40
0.1238161199986714
 40
0.151816720498118
 40
0.2339956019906795
 40
0.3087384674604509
 40
0.3808737451993719
 40
0.466229532048341
 40
0.6669820502227157
 40
0.866034585301823
 40
1.0
 40
1.0
 40
1.0
 40
1.0
 10
153.6345216799992
 20
171.8058997565358
 30
0.0
 10
153.6350387309298
 20
171.8062737067706
 30
0.0
 10
153.6370064550133
 20
171.8078420784525
 30
0.0
 10
153.6397567972459
 20
171.8108367052245
 30
0.0
 10
153.6420572574307
 20
171.8151325348885
 30
0.0
 10
153.6433259023882
 20
171.8192808236936
 30
0.0
 10
153.6441807546612
 20
171.8247179877423
 30
0.0
 10
153.6443759120146
 20
171.8322400917657
 30
0.0
 10
153.6438723617273
 20
171.8435561345917
 30
0.0
 10
153.643115394862
 20
171.8506741490032
 30
0.0
 10
153.6427530619307
 20
171.8540040197518
 30
0.0
  0
LINE
  5
1D3
330
62
100
AcDbEntity
  8
RIBETTO_001_SEP-
  6
CONTINUOUS
 62
     7
100
AcDbLine
 10
153.6311276383
 20
171.6822311838
 30
0.0
 11
153.6311578017
 21
171.6829694549
 31
0.0
  0
ARC
  5
1D4
330
62
100
AcDbEntity
  8
RIBETTO_001_SEP-
  6
CONTINUOUS
 62
     7
100
AcDbCircle
 10
153.6121613477
 20
171.5192670666
 30
0.0
 40
0.0200000000000021
100
AcDbArc
 50
348.6754616049
 51
16.96717894
  0
ARC
  5
1D5
330
62
100
AcDbEntity
  8
RIBETTO_001_SEP-
  6
CONTINUOUS
 62
     7
100
AcDbCircle
 10
152.5482855929
 20
171.7323242848
 30
0.0
 40
1.104999999999999
100
AcDbArc
 50
11.3245383951
 51
26.9034680361
  0
ARC
  5
1D6
330
62
100
AcDbEntity
  8
RIBETTO_001_SEP-
  6
CONTINUOUS
 62
     7
100
AcDbCircle
 10
152.5482855929
 20
171.7323242848
 30
0.0
 40
1.105000000000001
100
AcDbArc
 50
333.0965319639
 51
348.6754616049
  0
LINE
  5
1D7
330
62
100
AcDbEntity
  8
RIBETTO_001_SEP-
  6
CONTINUOUS
 62
     7
100
AcDbLine
 10
153.5336916006
 20
172.2323242848
 30
0.0
 11
153.5285534134
 21
172.2323242848
 31
0.0
  0
LINE
  5
1D8
330
62
100
AcDbEntity
  8
RIBETTO_001_SEP-
  6
CONTINUOUS
 62
     7
100
AcDbLine
 10
153.5285534134
 20
171.2323242848
 30
0.0
 11
153.5336916006
 21
171.2323242848
 31
0.0
  0
LINE
  5
1D9
330
62
100
AcDbEntity
  8
RIBETTO_001_SEP-
  6
CONTINUOUS
 62
     7
100
AcDbLine
 10
223.2432855929
 20
171.0323242848
 30
0.0
 11
223.2432855929
 21
172.4323242848
 31
0.0
  0
ELLIPSE
  5
1DA
330
62
100
AcDbEntity
  8
RIBETTO_001_SEP-
  6
CONTINUOUS
 62
     7
100
AcDbEllipse
 10
224.0809507301
 20
171.7323242851
 30
0.0
 11
8.199929624197469E-9
 21
1.100481472381365
 31
0.0
210
0.0
220
0.0
230
1.0
 40
0.9848077524
 41
1.40882309842308
 42
1.459979541584308
  0
SPLINE
  5
1DB
330
62
100
AcDbEntity
  8
RIBETTO_001_SEP-
  6
CONTINUOUS
 62
     7
100
AcDbSpline
210
0.0
220
0.0
230
1.0
 70
     8
 71
     3
 72
    10
 73
     6
 74
     0
 42
0.0000003235086369
 43
0.0000000001
 40
0.0
 40
0.0
 40
0.0
 40
0.0
 40
0.4999999999999998
 40
0.4999999999999998
 40
1.0
 40
1.0
 40
1.0
 40
1.0
 10
223.0038357364521
 20
171.8540266632082
 30
0.0
 10
223.0029732456644
 20
171.8461559415599
 30
0.0
 10
223.0024840335161
 20
171.8384599250512
 30
0.0
 10
223.0024848906359
 20
171.8273942236279
 30
0.0
 10
223.002973257951
 20
171.8240899146988
 30
0.0
 10
223.0038357364521
 20
171.8239378364687
 30
0.0
  0
SPLINE
  5
1DC
330
62
100
AcDbEntity
  8
RIBETTO_001_SEP-
  6
CONTINUOUS
 62
     7
100
AcDbSpline
210
0.0
220
0.0
230
1.0
 70
     8
 71
     3
 72
    10
 73
     6
 74
     0
 42
0.0000002344868897
 43
0.0000000001
 40
0.0
 40
0.0
 40
0.0
 40
0.0
 40
0.5
 40
0.5
 40
1.0
 40
1.0
 40
1.0
 40
1.0
 10
223.0158862103128
 20
171.7816945771441
 30
0.0
 10
223.0163522177945
 20
171.7922721935608
 30
0.0
 10
223.0161392729861
 20
171.8026576998972
 30
0.0
 10
223.0144869502628
 20
171.8177214745487
 30
0.0
 10
223.0130553669065
 20
171.8223121668674
 30
0.0
 10
223.0113734263093
 20
171.8226087383747
 30
0.0
  0
ARC
  5
1DD
330
62
100
AcDbEntity
  8
RIBETTO_001_SEP-
  6
CONTINUOUS
 62
     7
100
AcDbCircle
 10
224.1365120261
 20
171.7323242848
 30
0.0
 40
1.121712817376281
100
AcDbArc
 50
177.4774082831
 51
182.5225917169
  0
ELLIPSE
  5
1DE
330
62
100
AcDbEntity
  8
RIBETTO_001_SEP-
  6
CONTINUOUS
 62
     7
100
AcDbEllipse
 10
224.080950731
 20
171.7323242848
 30
0.0
 11
3.625544309215911E-9
 21
-1.100481472847667
 31
0.0
210
0.0
220
0.0
230
1.0
 40
0.9848077527
 41
4.823205769755276
 42
4.874362212895372
  0
SPLINE
  5
1DF
330
62
100
AcDbEntity
  8
RIBETTO_001_SEP-
  6
CONTINUOUS
 62
     7
100
AcDbSpline
210
0.0
220
0.0
230
1.0
 70
     8
 71
     3
 72
    10
 73
     6
 74
     0
 42
0.0000002344852705
 43
0.0000000001
 40
0.0
 40
0.0
 40
0.0
 40
0.0
 40
0.5
 40
0.5
 40
1.0
 40
1.0
 40
1.0
 40
1.0
 10
223.0113734263094
 20
171.6420398313055
 30
0.0
 10
223.0130556600876
 20
171.6423364545084
 30
0.0
 10
223.0144894534221
 20
171.6469354240979
 30
0.0
 10
223.0161411800611
 20
171.662022786439
 30
0.0
 10
223.0163522911691
 20
171.6723747106364
 30
0.0
 10
223.0158862103128
 20
171.6829539925361
 30
0.0
  0
ELLIPSE
  5
1E0
330
62
100
AcDbEntity
  8
RIBETTO_001_SEP-
  6
CONTINUOUS
 62
     7
100
AcDbEllipse
 10
223.0236447836
 20
171.8222796726
 30
0.0
 11
0.003472963553369235
 21
0.01969615506023925
 31
0.0
210
0.0
220
0.0
230
1.0
 40
0.9938661003
 41
1.66126128651824
 42
2.908109647399079
  0
LINE
  5
1E1
330
62
100
AcDbEntity
  8
RIBETTO_001_SEP-
  6
CONTINUOUS
 62
     7
100
AcDbLine
 10
223.1180177723
 20
171.2223242848
 30
0.0
 11
223.1180177723
 21
172.2423242848
 31
0.0
  0
LINE
  5
1E2
330
62
100
AcDbEntity
  8
RIBETTO_001_SEP-
  6
CONTINUOUS
 62
     7
100
AcDbLine
 10
223.1128795852
 20
171.2323242848
 30
0.0
 11
223.1128795852
 21
172.2323242848
 31
0.0
  0
ARC
  5
1E3
330
62
100
AcDbEntity
  8
RIBETTO_001_SEP-
  6
CONTINUOUS
 62
     7
100
AcDbCircle
 10
224.0982855929
 20
171.7323242848
 30
0.0
 40
1.105000000000001
100
AcDbArc
 50
140.6923518839
 51
152.5135737496
  0
ARC
  5
1E4
330
62
100
AcDbEntity
  8
RIBETTO_001_SEP-
  6
CONTINUOUS
 62
     7
100
AcDbCircle
 10
224.0982855929
 20
171.7323242848
 30
0.0
 40
1.105000000000001
100
AcDbArc
 50
207.4864262504
 51
219.3076481161
  0
LINE
  5
1E5
330
62
100
AcDbEntity
  8
RIBETTO_001_SEP-
  6
CONTINUOUS
 62
     7
100
AcDbLine
 10
223.2932855929
 20
172.4323242848
 30
0.0
 11
223.2432855929
 21
172.4323242848
 31
0.0
  0
LINE
  5
1E6
330
62
100
AcDbEntity
  8
RIBETTO_001_SEP-
  6
CONTINUOUS
 62
     7
100
AcDbLine
 10
223.2432855929
 20
171.0323242848
 30
0.0
 11
223.2932855929
 21
171.0323242848
 31
0.0
  0
ARC
  5
1E7
330
62
100
AcDbEntity
  8
RIBETTO_001_SEP-
  6
CONTINUOUS
 62
     7
100
AcDbCircle
 10
223.034409838
 20
171.9453815031
 30
0.0
 40
0.0200000000000016
100
AcDbArc
 50
168.6754616049
 51
197.4456281394
  0
SPLINE
  5
1E8
330
62
100
AcDbEntity
  8
RIBETTO_001_SEP-
  6
CONTINUOUS
 62
     7
100
AcDbSpline
210
0.0
220
0.0
230
1.0
 70
     8
 71
     3
 72
    13
 73
     9
 74
     0
 42
0.0000001930314846
 43
0.0000000001
 40
0.3205199328253215
 40
0.3205199328253215
 40
0.3205199328253215
 40
0.3205199328253215
 40
0.3703634832798867
 40
0.454132240717641
 40
0.5845043995183734
 40
0.7543250588969533
 40
0.9429231006773573
 40
1.0
 40
1.0
 40
1.0
 40
1.0
 10
223.0157189661348
 20
171.9436637337155
 30
0.0
 10
223.0157188673038
 20
171.9436648034622
 30
0.0
 10
223.0157122052714
 20
171.9432350084581
 30
0.0
 10
223.0155568806393
 20
171.9409178073269
 30
0.0
 10
223.0149984191471
 20
171.9354637985158
 30
0.0
 10
223.0137677863319
 20
171.9259474585006
 30
0.0
 10
223.0122967238761
 20
171.9158394034798
 30
0.0
 10
223.0113693048901
 20
171.9102812271801
 30
0.0
 10
223.0111186857143
 20
171.9087825454285
 30
0.0
  0
LINE
  5
1E9
330
62
100
AcDbEntity
  8
RIBETTO_001_SEP-
  6
CONTINUOUS
 62
     7
100
AcDbLine
 10
223.0154435475
 20
171.7824173859
 30
0.0
 11
223.0154133796
 21
171.7816790057
 31
0.0
  0
SPLINE
  5
1EA
330
62
100
AcDbEntity
  8
RIBETTO_001_SEP-
  6
CONTINUOUS
 62
     7
100
AcDbSpline
210
0.0
220
0.0
230
1.0
 70
     8
 71
     3
 72
    14
 73
    10
 74
     0
 42
0.0000001729437714
 43
0.0000000001
 40
0.1977173442530013
 40
0.1977173442530013
 40
0.1977173442530013
 40
0.1977173442530013
 40
0.2354179061599881
 40
0.310024638165728
 40
0.3820285317892825
 40
0.4672288552513492
 40
0.6676157313613793
 40
0.8663057206503022
 40
1.0
 40
1.0
 40
1.0
 40
1.0
 10
223.0084395308852
 20
171.6554977562432
 30
0.0
 10
223.0078879316177
 20
171.6548828807288
 30
0.0
 10
223.0063684196186
 20
171.65297866609
 30
0.0
 10
223.0045139141657
 20
171.6495161394817
 30
0.0
 10
223.0032452878577
 20
171.6453677134387
 30
0.0
 10
223.0023904274478
 20
171.6399306058834
 30
0.0
 10
223.0021952790885
 20
171.6324084688511
 30
0.0
 10
223.0026987852737
 20
171.6210930146601
 30
0.0
 10
223.0034556857375
 20
171.6139755805099
 30
0.0
 10
223.0038179412719
 20
171.6106463859251
 30
0.0
  0
SPLINE
  5
1EB
330
62
100
AcDbEntity
  8
RIBETTO_001_SEP-
  6
CONTINUOUS
 62
     7
100
AcDbSpline
210
0.0
220
0.0
230
1.0
 70
     8
 71
     3
 72
    12
 73
     8
 74
     0
 42
0.0000002016571955
 43
0.0000000001
 40
0.0
 40
0.0
 40
0.0
 40
0.0
 40
0.0888908249106213
 40
0.2895392926701347
 40
0.4875830158497872
 40
0.6098688925135984
 40
0.6763067360665709
 40
0.6763067360665709
 40
0.6763067360665709
 40
0.6763067360665709
 10
223.0113866039179
 20
171.5541779658136
 30
0.0
 10
223.0117585157779
 20
171.5518986997241
 30
0.0
 10
223.0127975292406
 20
171.545507775747
 30
0.0
 10
223.0143442037317
 20
171.5345155815308
 30
0.0
 10
223.015387950534
 20
171.5257057340429
 30
0.0
 10
223.0157037256415
 20
171.5217476395635
 30
0.0
 10
223.015718648583
 20
171.5209496760955
 30
0.0
 10
223.0157190019225
 20
171.5209621659197
 30
0.0
  0
ARC
  5
1EC
330
62
100
AcDbEntity
  8
RIBETTO_001_SEP-
  6
CONTINUOUS
 62
     7
100
AcDbCircle
 10
223.034409838
 20
171.5192670666
 30
0.0
 40
0.0199999999999984
100
AcDbArc
 50
174.8175224392
 51
191.3245383951
  0
ARC
  5
1ED
330
62
100
AcDbEntity
  8
RIBETTO_001_SEP-
  6
CONTINUOUS
 62
     7
100
AcDbCircle
 10
224.0982855929
 20
171.7323242848
 30
0.0
 40
1.104999999999999
100
AcDbArc
 50
153.0965319639
 51
168.6754616049
  0
ARC
  5
1EE
330
62
100
AcDbEntity
  8
RIBETTO_001_SEP-
  6
CONTINUOUS
 62
     7
100
AcDbCircle
 10
224.0982855929
 20
171.7323242848
 30
0.0
 40
1.104999999999999
100
AcDbArc
 50
191.3245383951
 51
206.9034680361
  0
LINE
  5
1EF
330
62
100
AcDbEntity
  8
RIBETTO_001_SEP-
  6
CONTINUOUS
 62
     7
100
AcDbLine
 10
223.1128795852
 20
171.2323242848
 30
0.0
 11
223.1180177723
 21
171.2323242848
 31
0.0
  0
LINE
  5
1F0
330
62
100
AcDbEntity
  8
RIBETTO_001_SEP-
  6
CONTINUOUS
 62
     7
100
AcDbLine
 10
223.1180177723
 20
172.2323242848
 30
0.0
 11
223.1128795852
 21
172.2323242848
 31
0.0
  0
LINE
  5
1F1
330
62
100
AcDbEntity
  8
RIBETTO_001_SEP-
  6
CONTINUOUS
 62
     7
100
AcDbLine
 10
153.4032855929
 20
237.5658313269
 30
0.0
 11
153.4032855929
 21
236.1658313269
 31
0.0
  0
ELLIPSE
  5
1F2
330
62
100
AcDbEntity
  8
RIBETTO_001_SEP-
  6
CONTINUOUS
 62
     7
100
AcDbEllipse
 10
152.5656204544
 20
236.8658313269
 30
0.0
 11
-1.565297891303885E-9
 21
1.100481473034853
 31
0.0
210
0.0
220
0.0
230
1.0
 40
0.9848077529
 41
4.823205771629334
 42
4.874362214760989
  0
SPLINE
  5
1F3
330
62
100
AcDbEntity
  8
RIBETTO_001_SEP-
  6
CONTINUOUS
 62
     7
100
AcDbSpline
210
0.0
220
0.0
230
1.0
 70
     8
 71
     3
 72
    10
 73
     6
 74
     0
 42
0.0000002344852705
 43
0.0000000001
 40
0.0
 40
0.0
 40
0.0
 40
0.0
 40
0.5
 40
0.5
 40
1.0
 40
1.0
 40
1.0
 40
1.0
 10
153.6351977594711
 20
236.9561157804202
 30
0.0
 10
153.6335155256929
 20
236.9558191572173
 30
0.0
 10
153.6320817323584
 20
236.9512201876278
 30
0.0
 10
153.6304300057194
 20
236.9361328252868
 30
0.0
 10
153.6302188946114
 20
236.9257809010894
 30
0.0
 10
153.6306849754677
 20
236.9152016191897
 30
0.0
  0
ARC
  5
1F4
330
62
100
AcDbEntity
  8
RIBETTO_001_SEP-
  6
CONTINUOUS
 62
     7
100
AcDbCircle
 10
152.5100591597
 20
236.8658313269
 30
0.0
 40
1.121712817376536
100
AcDbArc
 50
357.4774082831
 51
2.5225917169
  0
SPLINE
  5
1F5
330
62
100
AcDbEntity
  8
RIBETTO_001_SEP-
  6
CONTINUOUS
 62
     7
100
AcDbSpline
210
0.0
220
0.0
230
1.0
 70
     8
 71
     3
 72
    10
 73
     6
 74
     0
 42
0.0000002344868897
 43
0.0000000001
 40
0.0
 40
0.0
 40
0.0
 40
0.0
 40
0.5
 40
0.5
 40
1.0
 40
1.0
 40
1.0
 40
1.0
 10
153.6306849754677
 20
236.8164610345816
 30
0.0
 10
153.6302189679859
 20
236.8058834181649
 30
0.0
 10
153.6304319127944
 20
236.7954979118285
 30
0.0
 10
153.6320842355177
 20
236.780434137177
 30
0.0
 10
153.6335158188739
 20
236.7758434448583
 30
0.0
 10
153.6351977594711
 20
236.7755468733511
 30
0.0
  0
SPLINE
  5
1F6
330
62
100
AcDbEntity
  8
RIBETTO_001_SEP-
  6
CONTINUOUS
 62
     7
100
AcDbSpline
210
0.0
220
0.0
230
1.0
 70
     8
 71
     3
 72
    10
 73
     6
 74
     0
 42
0.0000003235086369
 43
0.0000000001
 40
0.0
 40
0.0
 40
0.0
 40
0.0
 40
0.4999999999999996
 40
0.4999999999999996
 40
1.0
 40
1.0
 40
1.0
 40
1.0
 10
153.6427354493284
 20
236.7441289485175
 30
0.0
 10
153.6435979401161
 20
236.7519996701658
 30
0.0
 10
153.6440871522644
 20
236.7596956866746
 30
0.0
 10
153.6440862951446
 20
236.7707613880978
 30
0.0
 10
153.6435979278295
 20
236.774065697027
 30
0.0
 10
153.6427354493284
 20
236.774217775257
 30
0.0
  0
ELLIPSE
  5
1F7
330
62
100
AcDbEntity
  8
RIBETTO_001_SEP-
  6
CONTINUOUS
 62
     7
100
AcDbEllipse
 10
152.5656204539
 20
236.8658313269
 30
0.0
 11
1.503513979983495E-9
 21
-1.100481473278359
 31
0.0
210
0.0
220
0.0
230
1.0
 40
0.9848077531
 41
1.408823089641334
 42
1.459979532762131
  0
ARC
  5
1F8
330
62
100
AcDbEntity
  8
RIBETTO_001_SEP-
  6
CONTINUOUS
 62
     7
100
AcDbCircle
 10
153.8478208469
 20
236.6440396375
 30
0.0
 40
0.2171934041126255
100
AcDbArc
 50
168.2252423993
 51
178.6811927476
  0
ELLIPSE
  5
1F9
330
62
100
AcDbEntity
  8
RIBETTO_001_SEP-
  6
CONTINUOUS
 62
     7
100
AcDbEllipse
 10
153.6229264022
 20
236.7758759391
 30
0.0
 11
0.003472963553508013
 21
0.0196961550602226
 31
0.0
210
0.0
220
0.0
230
0.9999999999999998
 40
0.9938661003
 41
4.802853940112123
 42
6.042107870015199
  0
LINE
  5
1FA
330
62
100
AcDbEntity
  8
RIBETTO_001_SEP-
  6
CONTINUOUS
 62
     7
100
AcDbLine
 10
153.5285534134
 20
237.3758313269
 30
0.0
 11
153.5285534134
 21
236.3558313269
 31
0.0
  0
LINE
  5
1FB
330
62
100
AcDbEntity
  8
RIBETTO_001_SEP-
  6
CONTINUOUS
 62
     7
100
AcDbLine
 10
153.5336916006
 20
237.3658313269
 30
0.0
 11
153.5336916006
 21
236.3658313269
 31
0.0
  0
ARC
  5
1FC
330
62
100
AcDbEntity
  8
RIBETTO_001_SEP-
  6
CONTINUOUS
 62
     7
100
AcDbCircle
 10
152.5482855929
 20
236.8658313269
 30
0.0
 40
1.105000000000002
100
AcDbArc
 50
27.4864262504
 51
39.3076481161
  0
ARC
  5
1FD
330
62
100
AcDbEntity
  8
RIBETTO_001_SEP-
  6
CONTINUOUS
 62
     7
100
AcDbCircle
 10
152.5482855929
 20
236.8658313269
 30
0.0
 40
1.105000000000001
100
AcDbArc
 50
320.6923518839
 51
332.5135737496
  0
LINE
  5
1FE
330
62
100
AcDbEntity
  8
RIBETTO_001_SEP-
  6
CONTINUOUS
 62
     7
100
AcDbLine
 10
153.3532855929
 20
236.1658313269
 30
0.0
 11
153.4032855929
 21
236.1658313269
 31
0.0
  0
LINE
  5
1FF
330
62
100
AcDbEntity
  8
RIBETTO_001_SEP-
  6
CONTINUOUS
 62
     7
100
AcDbLine
 10
153.4032855929
 20
237.5658313269
 30
0.0
 11
153.3532855929
 21
237.5658313269
 31
0.0
  0
ARC
  5
200
330
62
100
AcDbEntity
  8
RIBETTO_001_SEP-
  6
CONTINUOUS
 62
     7
100
AcDbCircle
 10
153.6121613477
 20
237.0788885451
 30
0.0
 40
0.0200000000000011
100
AcDbArc
 50
354.8175224393
 51
11.3245383952
  0
SPLINE
  5
201
330
62
100
AcDbEntity
  8
RIBETTO_001_SEP-
  6
CONTINUOUS
 62
     7
100
AcDbSpline
210
0.0
220
0.0
230
1.0
 70
     8
 71
     3
 72
    12
 73
     8
 74
     0
 42
0.0000002020104314
 43
0.0000000001
 40
0.0
 40
0.0
 40
0.0
 40
0.0
 40
0.0890465567410054
 40
0.2900465495672467
 40
0.4884372344444092
 40
0.6109373492307701
 40
0.6774915954754437
 40
0.6774915954754437
 40
0.6774915954754437
 40
0.6774915954754437
 10
153.6351845818626
 20
237.0439776459122
 30
0.0
 10
153.6348126700026
 20
237.0462569120016
 30
0.0
 10
153.6337736564858
 20
237.0526478360905
 30
0.0
 10
153.6322269824972
 20
237.0636400292694
 30
0.0
 10
153.6311832339046
 20
237.0724498804524
 30
0.0
 10
153.6308674625234
 20
237.076407967303
 30
0.0
 10
153.630852534431
 20
237.0772059413985
 30
0.0
 10
153.6308521830202
 20
237.0771934475306
 30
0.0
  0
SPLINE
  5
202
330
62
100
AcDbEntity
  8
RIBETTO_001_SEP-
  6
CONTINUOUS
 62
     7
100
AcDbSpline
210
0.0
220
0.0
230
1.0
 70
     8
 71
     3
 72
    15
 73
    11
 74
     0
 42
0.0000001708132453
 43
0.0000000001
 40
0.1238161199987948
 40
0.1238161199987948
 40
0.1238161199987948
 40
0.1238161199987948
 40
0.1518167204981478
 40
0.2339956019907369
 40
0.3087384674604731
 40
0.3808737451994093
 40
0.4662295320483456
 40
0.6669820502227393
 40
0.8660345853019049
 40
1.0
 40
1.0
 40
1.0
 40
1.0
 10
153.6345216799992
 20
236.9394067985814
 30
0.0
 10
153.6350387309298
 20
236.9397807488162
 30
0.0
 10
153.6370064550133
 20
236.9413491204981
 30
0.0
 10
153.6397567972458
 20
236.9443437472702
 30
0.0
 10
153.6420572574307
 20
236.9486395769341
 30
0.0
 10
153.6433259023881
 20
236.9527878657393
 30
0.0
 10
153.6441807546612
 20
236.9582250297879
 30
0.0
 10
153.6443759120147
 20
236.9657471338113
 30
0.0
 10
153.6438723617273
 20
236.9770631766373
 30
0.0
 10
153.643115394862
 20
236.9841811910489
 30
0.0
 10
153.6427530619307
 20
236.9875110617975
 30
0.0
  0
LINE
  5
203
330
62
100
AcDbEntity
  8
RIBETTO_001_SEP-
  6
CONTINUOUS
 62
     7
100
AcDbLine
 10
153.6311276383
 20
236.8157382258
 30
0.0
 11
153.6311578017
 21
236.8164764969
 31
0.0
  0
ARC
  5
204
330
62
100
AcDbEntity
  8
RIBETTO_001_SEP-
  6
CONTINUOUS
 62
     7
100
AcDbCircle
 10
153.6121613477
 20
236.6527741086
 30
0.0
 40
0.0200000000000021
100
AcDbArc
 50
348.6754616048
 51
16.9671789399
  0
ARC
  5
205
330
62
100
AcDbEntity
  8
RIBETTO_001_SEP-
  6
CONTINUOUS
 62
     7
100
AcDbCircle
 10
152.5482855929
 20
236.8658313269
 30
0.0
 40
1.104999999999999
100
AcDbArc
 50
11.3245383951
 51
26.9034680361
  0
ARC
  5
206
330
62
100
AcDbEntity
  8
RIBETTO_001_SEP-
  6
CONTINUOUS
 62
     7
100
AcDbCircle
 10
152.5482855929
 20
236.8658313269
 30
0.0
 40
1.104999999999999
100
AcDbArc
 50
333.0965319639
 51
348.6754616049
  0
LINE
  5
207
330
62
100
AcDbEntity
  8
RIBETTO_001_SEP-
  6
CONTINUOUS
 62
     7
100
AcDbLine
 10
153.5336916006
 20
237.3658313269
 30
0.0
 11
153.5285534134
 21
237.3658313269
 31
0.0
  0
LINE
  5
208
330
62
100
AcDbEntity
  8
RIBETTO_001_SEP-
  6
CONTINUOUS
 62
     7
100
AcDbLine
 10
153.5285534134
 20
236.3658313269
 30
0.0
 11
153.5336916006
 21
236.3658313269
 31
0.0
  0
LINE
  5
209
330
62
100
AcDbEntity
  8
RIBETTO_001_SEP-
  6
CONTINUOUS
 62
     7
100
AcDbLine
 10
223.2432855929
 20
236.1658313269
 30
0.0
 11
223.2432855929
 21
237.5658313269
 31
0.0
  0
ELLIPSE
  5
20A
330
62
100
AcDbEntity
  8
RIBETTO_001_SEP-
  6
CONTINUOUS
 62
     7
100
AcDbEllipse
 10
224.0809507314
 20
236.8658313269
 30
0.0
 11
2.137939825175295E-9
 21
1.100481473017434
 31
0.0
210
0.0
220
0.0
230
1.0
 40
0.9848077529
 41
1.408823092932648
 42
1.459979536064968
  0
SPLINE
  5
20B
330
62
100
AcDbEntity
  8
RIBETTO_001_SEP-
  6
CONTINUOUS
 62
     7
100
AcDbSpline
210
0.0
220
0.0
230
1.0
 70
     8
 71
     3
 72
    10
 73
     6
 74
     0
 42
0.0000003235086369
 43
0.0000000001
 40
0.0
 40
0.0
 40
0.0
 40
0.0
 40
0.4999999999999998
 40
0.4999999999999998
 40
1.0
 40
1.0
 40
1.0
 40
1.0
 10
223.0038357364521
 20
236.9875337052538
 30
0.0
 10
223.0029732456644
 20
236.9796629836055
 30
0.0
 10
223.0024840335161
 20
236.9719669670967
 30
0.0
 10
223.0024848906359
 20
236.9609012656735
 30
0.0
 10
223.002973257951
 20
236.9575969567443
 30
0.0
 10
223.0038357364521
 20
236.9574448785143
 30
0.0
  0
SPLINE
  5
20C
330
62
100
AcDbEntity
  8
RIBETTO_001_SEP-
  6
CONTINUOUS
 62
     7
100
AcDbSpline
210
0.0
220
0.0
230
1.0
 70
     8
 71
     3
 72
    10
 73
     6
 74
     0
 42
0.0000002344868897
 43
0.0000000001
 40
0.0
 40
0.0
 40
0.0
 40
0.0
 40
0.5
 40
0.5
 40
1.0
 40
1.0
 40
1.0
 40
1.0
 10
223.0158862103128
 20
236.9152016191897
 30
0.0
 10
223.0163522177945
 20
236.9257792356064
 30
0.0
 10
223.0161392729861
 20
236.9361647419428
 30
0.0
 10
223.0144869502628
 20
236.9512285165943
 30
0.0
 10
223.0130553669065
 20
236.955819208913
 30
0.0
 10
223.0113734263093
 20
236.9561157804203
 30
0.0
  0
ARC
  5
20D
330
62
100
AcDbEntity
  8
RIBETTO_001_SEP-
  6
CONTINUOUS
 62
     7
100
AcDbCircle
 10
224.1365120261
 20
236.8658313269
 30
0.0
 40
1.121712817376281
100
AcDbArc
 50
177.4774082831
 51
182.5225917169
  0
ELLIPSE
  5
20E
330
62
100
AcDbEntity
  8
RIBETTO_001_SEP-
  6
CONTINUOUS
 62
     7
100
AcDbEllipse
 10
224.0809507315
 20
236.8658313269
 30
0.0
 11
8.150147223773274E-10
 21
-1.100481473078185
 31
0.0
210
0.0
220
0.0
230
1.0
 40
0.9848077529
 41
4.823205772306741
 42
4.874362215436521
  0
SPLINE
  5
20F
330
62
100
AcDbEntity
  8
RIBETTO_001_SEP-
  6
CONTINUOUS
 62
     7
100
AcDbSpline
210
0.0
220
0.0
230
1.0
 70
     8
 71
     3
 72
    10
 73
     6
 74
     0
 42
0.0000002344852705
 43
0.0000000001
 40
0.0
 40
0.0
 40
0.0
 40
0.0
 40
0.5
 40
0.5
 40
1.0
 40
1.0
 40
1.0
 40
1.0
 10
223.0113734263094
 20
236.7755468733511
 30
0.0
 10
223.0130556600876
 20
236.775843496554
 30
0.0
 10
223.0144894534221
 20
236.7804424661435
 30
0.0
 10
223.0161411800611
 20
236.7955298284846
 30
0.0
 10
223.0163522911691
 20
236.805881752682
 30
0.0
 10
223.0158862103128
 20
236.8164610345816
 30
0.0
  0
ELLIPSE
  5
210
330
62
100
AcDbEntity
  8
RIBETTO_001_SEP-
  6
CONTINUOUS
 62
     7
100
AcDbEllipse
 10
223.0236447836
 20
236.9557867147
 30
0.0
 11
0.003472963551220954
 21
0.01969615506060007
 31
0.0
210
0.0
220
0.0
230
1.0
 40
0.9938661003
 41
1.661261286408668
 42
2.908109647294554
  0
LINE
  5
211
330
62
100
AcDbEntity
  8
RIBETTO_001_SEP-
  6
CONTINUOUS
 62
     7
100
AcDbLine
 10
223.1180177723
 20
236.3558313269
 30
0.0
 11
223.1180177723
 21
237.3758313269
 31
0.0
  0
LINE
  5
212
330
62
100
AcDbEntity
  8
RIBETTO_001_SEP-
  6
CONTINUOUS
 62
     7
100
AcDbLine
 10
223.1128795852
 20
236.3658313269
 30
0.0
 11
223.1128795852
 21
237.3658313269
 31
0.0
  0
ARC
  5
213
330
62
100
AcDbEntity
  8
RIBETTO_001_SEP-
  6
CONTINUOUS
 62
     7
100
AcDbCircle
 10
224.0982855929
 20
236.8658313269
 30
0.0
 40
1.105000000000001
100
AcDbArc
 50
140.6923518839
 51
152.5135737496
  0
ARC
  5
214
330
62
100
AcDbEntity
  8
RIBETTO_001_SEP-
  6
CONTINUOUS
 62
     7
100
AcDbCircle
 10
224.0982855929
 20
236.8658313269
 30
0.0
 40
1.105000000000002
100
AcDbArc
 50
207.4864262504
 51
219.3076481161
  0
LINE
  5
215
330
62
100
AcDbEntity
  8
RIBETTO_001_SEP-
  6
CONTINUOUS
 62
     7
100
AcDbLine
 10
223.2932855929
 20
237.5658313269
 30
0.0
 11
223.2432855929
 21
237.5658313269
 31
0.0
  0
LINE
  5
216
330
62
100
AcDbEntity
  8
RIBETTO_001_SEP-
  6
CONTINUOUS
 62
     7
100
AcDbLine
 10
223.2432855929
 20
236.1658313269
 30
0.0
 11
223.2932855929
 21
236.1658313269
 31
0.0
  0
ARC
  5
217
330
62
100
AcDbEntity
  8
RIBETTO_001_SEP-
  6
CONTINUOUS
 62
     7
100
AcDbCircle
 10
223.034409838
 20
237.0788885451
 30
0.0
 40
0.02
100
AcDbArc
 50
168.6754616048
 51
197.4456281393
  0
SPLINE
  5
218
330
62
100
AcDbEntity
  8
RIBETTO_001_SEP-
  6
CONTINUOUS
 62
     7
100
AcDbSpline
210
0.0
220
0.0
230
1.0
 70
     8
 71
     3
 72
    13
 73
     9
 74
     0
 42
0.0000001930314846
 43
0.0000000001
 40
0.3205199328252292
 40
0.3205199328252292
 40
0.3205199328252292
 40
0.3205199328252292
 40
0.3703634832798818
 40
0.4541322407176402
 40
0.5845043995183898
 40
0.7543250588969159
 40
0.9429231006773634
 40
1.0
 40
1.0
 40
1.0
 40
1.0
 10
223.0157189661348
 20
237.0771707757611
 30
0.0
 10
223.0157188673038
 20
237.0771718455078
 30
0.0
 10
223.0157122052714
 20
237.0767420505038
 30
0.0
 10
223.0155568806393
 20
237.0744248493725
 30
0.0
 10
223.0149984191471
 20
237.0689708405613
 30
0.0
 10
223.0137677863319
 20
237.0594545005463
 30
0.0
 10
223.0122967238761
 20
237.0493464455253
 30
0.0
 10
223.0113693048901
 20
237.0437882692256
 30
0.0
 10
223.0111186857143
 20
237.0422895874741
 30
0.0
  0
LINE
  5
219
330
62
100
AcDbEntity
  8
RIBETTO_001_SEP-
  6
CONTINUOUS
 62
     7
100
AcDbLine
 10
223.0154435475
 20
236.9159244279
 30
0.0
 11
223.0154133796
 21
236.9151860478
 31
0.0
  0
SPLINE
  5
21A
330
62
100
AcDbEntity
  8
RIBETTO_001_SEP-
  6
CONTINUOUS
 62
     7
100
AcDbSpline
210
0.0
220
0.0
230
1.0
 70
     8
 71
     3
 72
    14
 73
    10
 74
     0
 42
0.0000001729437714
 43
0.0000000001
 40
0.197717344253422
 40
0.197717344253422
 40
0.197717344253422
 40
0.197717344253422
 40
0.2354179061600117
 40
0.3100246381656883
 40
0.3820285317892465
 40
0.4672288552513882
 40
0.667615731361399
 40
0.8663057206503114
 40
1.0
 40
1.0
 40
1.0
 40
1.0
 10
223.0084395308851
 20
236.7890047982888
 30
0.0
 10
223.0078879316177
 20
236.7883899227744
 30
0.0
 10
223.0063684196186
 20
236.7864857081356
 30
0.0
 10
223.0045139141657
 20
236.7830231815272
 30
0.0
 10
223.0032452878577
 20
236.7788747554843
 30
0.0
 10
223.0023904274478
 20
236.7734376479291
 30
0.0
 10
223.0021952790886
 20
236.7659155108967
 30
0.0
 10
223.0026987852737
 20
236.7546000567057
 30
0.0
 10
223.0034556857375
 20
236.7474826225555
 30
0.0
 10
223.0038179412719
 20
236.7441534279707
 30
0.0
  0
SPLINE
  5
21B
330
62
100
AcDbEntity
  8
RIBETTO_001_SEP-
  6
CONTINUOUS
 62
     7
100
AcDbSpline
210
0.0
220
0.0
230
1.0
 70
     8
 71
     3
 72
    12
 73
     8
 74
     0
 42
0.0000002016571955
 43
0.0000000001
 40
0.0
 40
0.0
 40
0.0
 40
0.0
 40
0.0888908249105802
 40
0.289539292670116
 40
0.4875830158498107
 40
0.6098688925136396
 40
0.6763067360665349
 40
0.6763067360665349
 40
0.6763067360665349
 40
0.6763067360665349
 10
223.0113866039179
 20
236.6876850078592
 30
0.0
 10
223.0117585157779
 20
236.6854057417697
 30
0.0
 10
223.0127975292406
 20
236.6790148177926
 30
0.0
 10
223.0143442037317
 20
236.6680226235764
 30
0.0
 10
223.0153879505341
 20
236.6592127760885
 30
0.0
 10
223.0157037256415
 20
236.6552546816091
 30
0.0
 10
223.015718648583
 20
236.6544567181411
 30
0.0
 10
223.0157190019226
 20
236.6544692079653
 30
0.0
  0
ARC
  5
21C
330
62
100
AcDbEntity
  8
RIBETTO_001_SEP-
  6
CONTINUOUS
 62
     7
100
AcDbCircle
 10
223.034409838
 20
236.6527741086
 30
0.0
 40
0.0200000000000011
100
AcDbArc
 50
174.8175224393
 51
191.3245383952
  0
ARC
  5
21D
330
62
100
AcDbEntity
  8
RIBETTO_001_SEP-
  6
CONTINUOUS
 62
     7
100
AcDbCircle
 10
224.0982855929
 20
236.8658313269
 30
0.0
 40
1.104999999999999
100
AcDbArc
 50
153.0965319639
 51
168.6754616049
  0
ARC
  5
21E
330
62
100
AcDbEntity
  8
RIBETTO_001_SEP-
  6
CONTINUOUS
 62
     7
100
AcDbCircle
 10
224.0982855929
 20
236.8658313269
 30
0.0
 40
1.104999999999999
100
AcDbArc
 50
191.3245383951
 51
206.9034680361
  0
LINE
  5
21F
330
62
100
AcDbEntity
  8
RIBETTO_001_SEP-
  6
CONTINUOUS
 62
     7
100
AcDbLine
 10
223.1128795852
 20
236.3658313269
 30
0.0
 11
223.1180177723
 21
236.3658313269
 31
0.0
  0
LINE
  5
220
330
62
100
AcDbEntity
  8
RIBETTO_001_SEP-
  6
CONTINUOUS
 62
     7
100
AcDbLine
 10
223.1180177723
 20
237.3658313269
 30
0.0
 11
223.1128795852
 21
237.3658313269
 31
0.0
  0
LINE
  5
222
330
62
100
AcDbEntity
  8
SITYUU_COVER_RIG
  6
CONTINUOUS
 62
     7
100
AcDbLine
 10
223.3732855929
 20
164.3440076722
 30
0.0
 11
223.370102494
 21
164.3440076722
 31
0.0
  0
ELLIPSE
  5
223
330
62
100
AcDbEntity
  8
SITYUU_COVER_RIG
  6
CONTINUOUS
 62
     7
100
AcDbEllipse
 10
223.3732855929
 20
164.3440076722
 30
0.0
 11
0.003183098861803125
 21
0.0
 31
0.0
210
0.0
220
0.0
230
1.0
 40
0.3826834323
 41
1.570796326794897
 42
3.141590677064362
  0
LINE
  5
224
330
62
100
AcDbEntity
  8
SITYUU_COVER_RIG
  6
CONTINUOUS
 62
     7
100
AcDbLine
 10
223.370102494
 20
164.3440076722
 30
0.0
 11
223.2932855929
 21
164.3440076722
 31
0.0
  0
ELLIPSE
  5
225
330
62
100
AcDbEntity
  8
SITYUU_COVER_RIG
  6
CONTINUOUS
 62
     7
100
AcDbEllipse
 10
223.3732855929
 20
164.3440076722
 30
0.0
 11
0.07999999999994678
 21
0.0
 31
0.0
210
0.0
220
0.0
230
1.0
 40
0.3826834324
 41
1.570796326794897
 42
3.141592653589793
  0
ELLIPSE
  5
226
330
62
100
AcDbEntity
  8
SITYUU_COVER_RIG
  6
CONTINUOUS
 62
     7
100
AcDbEllipse
 10
223.3732855929
 20
164.3440076722
 30
0.0
 11
0.003183098861953004
 21
4.163336342344338E-15
 31
0.0
210
0.0
220
0.0
230
1.0
 40
0.3826834324
 41
0.0
 42
1.570796326794396
  0
LINE
  5
227
330
62
100
AcDbEntity
  8
SITYUU_COVER_RIG
  6
CONTINUOUS
 62
     7
100
AcDbLine
 10
223.3732855929
 20
164.3746223468
 30
0.0
 11
226.6259586049
 21
164.3746223468
 31
0.0
  0
LINE
  5
228
330
62
100
AcDbEntity
  8
SITYUU_COVER_RIG
  6
CONTINUOUS
 62
     7
100
AcDbLine
 10
223.3764686918
 20
164.3440076722
 30
0.0
 11
226.6259586049
 21
164.3440076722
 31
0.0
  0
ELLIPSE
  5
229
330
62
100
AcDbEntity
  8
SITYUU_COVER_RIG
  6
CONTINUOUS
 62
     7
100
AcDbEllipse
 10
228.4132855929
 20
164.3440076722
 30
0.0
 11
0.02011496045263295
 21
0.001925669494963478
 31
0.0
210
0.0
220
0.0
230
0.9999999999999998
 40
0.0254022729
 41
0.2593675517807792
 42
1.8301638785603
  0
LINE
  5
22A
330
62
100
AcDbEntity
  8
SITYUU_COVER_RIG
  6
CONTINUOUS
 62
     7
100
AcDbLine
 10
227.5146103651
 20
164.3440076722
 30
0.0
 11
227.5918844312
 21
164.351931333
 31
0.0
  0
LINE
  5
22B
330
62
100
AcDbEntity
  8
SITYUU_COVER_RIG
  6
CONTINUOUS
 62
     7
100
AcDbLine
 10
227.5918844312
 20
164.351931333
 30
0.0
 11
228.490559659
 21
164.351931333
 31
0.0
  0
LINE
  5
22C
330
62
100
AcDbEntity
  8
SITYUU_COVER_RIG
  6
CONTINUOUS
 62
     7
100
AcDbLine
 10
227.5146103651
 20
164.3440076722
 30
0.0
 11
228.4080794426
 21
164.3440076722
 31
0.0
  0
LINE
  5
22D
330
62
100
AcDbEntity
  8
SITYUU_COVER_RIG
  6
CONTINUOUS
 62
     7
100
AcDbLine
 10
228.4132855929
 20
164.3440076722
 30
0.0
 11
228.4334006128
 21
164.3440076722
 31
0.0
  0
LINE
  5
22E
330
62
100
AcDbEntity
  8
SITYUU_COVER_RIG
  6
CONTINUOUS
 62
     7
100
AcDbLine
 10
228.4334006128
 20
164.3440076722
 30
0.0
 11
228.4932855929
 21
164.3440076722
 31
0.0
  0
ELLIPSE
  5
22F
330
62
100
AcDbEntity
  8
SITYUU_COVER_RIG
  6
CONTINUOUS
 62
     7
100
AcDbEllipse
 10
228.4132855929
 20
164.3440076722
 30
0.0
 11
0.02011501993096076
 21
2.775557561562891E-14
 31
0.0
210
0.0
220
0.0
230
1.0
 40
0.3826834324
 41
0.0000000000000865
 42
0.2617993877896406
  0
LINE
  5
230
330
62
100
AcDbEntity
  8
SITYUU_COVER_RIG
  6
CONTINUOUS
 62
     7
100
AcDbLine
 10
228.4327152101
 20
164.3459999796
 30
0.0
 11
228.490559659
 21
164.351931333
 31
0.0
  0
ELLIPSE
  5
231
330
62
100
AcDbEntity
  8
SITYUU_COVER_RIG
  6
CONTINUOUS
 62
     7
100
AcDbEllipse
 10
228.4132855929
 20
164.3440076722
 30
0.0
 11
0.07999999999966367
 21
-2.081668171172169E-14
 31
0.0
210
0.0
220
0.0
230
1.0
 40
0.3826834324
 41
0.0
 42
0.261799387800534
  0
SPLINE
  5
232
330
62
100
AcDbEntity
  8
SITYUU_COVER_RIG
  6
CONTINUOUS
 62
     7
100
AcDbSpline
210
0.0
220
0.0
230
1.0
 70
     8
 71
     3
 72
    14
 73
    10
 74
     0
 42
0.0000001210986714
 43
0.0000000001
 40
0.0
 40
0.0
 40
0.0
 40
0.0
 40
0.25
 40
0.25
 40
0.5
 40
0.5
 40
0.75
 40
0.75
 40
1.0
 40
1.0
 40
1.0
 40
1.0
 10
228.4132855928902
 20
164.3440076721674
 30
0.0
 10
228.4237593521546
 20
164.3416398891685
 30
0.0
 10
228.434225423639
 20
164.3400123113669
 30
0.0
 10
228.4535751113199
 20
164.3381236997496
 30
0.0
 10
228.4624493304883
 20
164.3378619493458
 30
0.0
 10
228.4772589402822
 20
164.3383861853954
 30
0.0
 10
228.4831885039586
 20
164.3391701026586
 30
0.0
 10
228.4912034070238
 20
164.3413065519757
 30
0.0
 10
228.4932855928903
 20
164.342656150329
 30
0.0
 10
228.4932855928903
 20
164.3440076721674
 30
0.0
  0
ARC
  5
233
330
62
100
AcDbEntity
  8
SITYUU_COVER_RIG
  6
CONTINUOUS
 62
     7
100
AcDbCircle
 10
226.5069264545
 20
138.7371595722
 30
0.0
 40
25.63773910022638
100
AcDbArc
 50
87.5745879034
 51
89.7339833938
  0
ARC
  5
234
330
62
100
AcDbEntity
  8
SITYUU_COVER_RIG
  6
CONTINUOUS
 62
     7
100
AcDbCircle
 10
227.070284485
 20
181.7896250882
 30
0.0
 40
17.45127481061505
100
AcDbArc
 50
268.5410378725
 51
271.2335788973
  0
LINE
  5
235
330
62
100
AcDbEntity
  8
SITYUU_COVER_RIG
  6
CONTINUOUS
 62
     7
100
AcDbLine
 10
223.2932855929
 20
168.1715419224
 30
0.0
 11
223.2932855929
 21
168.3628836386
 31
0.0
  0
LINE
  5
236
330
62
100
AcDbEntity
  8
SITYUU_COVER_RIG
  6
CONTINUOUS
 62
     7
100
AcDbLine
 10
228.4080794426
 20
164.3440076722
 30
0.0
 11
228.4132855929
 21
164.3440076722
 31
0.0
  0
ARC
  5
237
330
62
100
AcDbEntity
  8
SITYUU_COVER_RIG
  6
CONTINUOUS
 62
     7
100
AcDbCircle
 10
228.1124734499
 20
160.4602024324
 30
0.0
 40
3.937784465755005
100
AcDbArc
 50
98.5304491319
 51
99.7615402732
  0
LINE
  5
239
330
62
100
AcDbEntity
  8
STOPPER_FTONT_TI
  6
CONTINUOUS
 62
     7
100
AcDbLine
 10
223.5232855929
 20
163.733543938
 30
0.0
 11
223.5232855929
 21
161.712501058
 31
0.0
  0
LINE
  5
23A
330
62
100
AcDbEntity
  8
STOPPER_FTONT_TI
  6
CONTINUOUS
 62
     7
100
AcDbLine
 10
223.5232855929
 20
163.733543938
 30
0.0
 11
226.8232855929
 21
163.733543938
 31
0.0
  0
LINE
  5
23B
330
62
100
AcDbEntity
  8
STOPPER_FTONT_TI
  6
CONTINUOUS
 62
     7
100
AcDbLine
 10
226.8232855929
 20
163.733543938
 30
0.0
 11
226.8232855929
 21
161.712501058
 31
0.0
  0
LINE
  5
23C
330
62
100
AcDbEntity
  8
STOPPER_FTONT_TI
  6
CONTINUOUS
 62
     7
100
AcDbLine
 10
223.5232855929
 20
161.3133461831
 30
0.0
 11
223.5232855929
 21
155.9364128864
 31
0.0
  0
LINE
  5
23D
330
62
100
AcDbEntity
  8
STOPPER_FTONT_TI
  6
CONTINUOUS
 62
     7
100
AcDbLine
 10
226.8232855929
 20
161.3133461831
 30
0.0
 11
226.8232855929
 21
155.9364128864
 31
0.0
  0
LINE
  5
23E
330
62
100
AcDbEntity
  8
STOPPER_FTONT_TI
  6
CONTINUOUS
 62
     7
100
AcDbLine
 10
223.5232855929
 20
161.3133461831
 30
0.0
 11
223.5232855929
 21
161.712501058
 31
0.0
  0
LINE
  5
23F
330
62
100
AcDbEntity
  8
STOPPER_FTONT_TI
  6
CONTINUOUS
 62
     7
100
AcDbLine
 10
226.8232855929
 20
161.712501058
 30
0.0
 11
226.8232855929
 21
161.3133461831
 31
0.0
  0
LINE
  5
240
330
62
100
AcDbEntity
  8
STOPPER_FTONT_TI
  6
CONTINUOUS
 62
     7
100
AcDbLine
 10
226.8232855929
 20
155.9364128864
 30
0.0
 11
226.8232855929
 21
155.4864128864
 31
0.0
  0
LINE
  5
241
330
62
100
AcDbEntity
  8
STOPPER_FTONT_TI
  6
CONTINUOUS
 62
     7
100
AcDbLine
 10
223.5232855929
 20
155.9364128864
 30
0.0
 11
223.5232855929
 21
155.4864128864
 31
0.0
  0
LINE
  5
242
330
62
100
AcDbEntity
  8
STOPPER_FTONT_TI
  6
CONTINUOUS
 62
     7
100
AcDbLine
 10
226.8232855929
 20
155.4864128864
 30
0.0
 11
223.5232855929
 21
155.4864128864
 31
0.0
  0
LINE
  5
243
330
62
100
AcDbEntity
  8
STOPPER_FTONT_TI
  6
CONTINUOUS
 62
     7
100
AcDbLine
 10
226.8232855929
 20
164.1954837042
 30
0.0
 11
226.8232855929
 21
163.733543938
 31
0.0
  0
ELLIPSE
  5
244
330
62
100
AcDbEntity
  8
STOPPER_FTONT_TI
  6
CONTINUOUS
 62
     7
100
AcDbEllipse
 10
226.8232855929
 20
164.0232761597
 30
0.0
 11
-0.4499999999999949
 21
-1.387778780781446E-15
 31
0.0
210
0.0
220
0.0
230
1.0
 40
0.3826834324
 41
3.141592653589785
 42
4.712388980384688
  0
LINE
  5
245
330
62
100
AcDbEntity
  8
STOPPER_FTONT_TI
  6
CONTINUOUS
 62
     7
100
AcDbLine
 10
227.2732855929
 20
164.0232761597
 30
0.0
 11
227.2732855929
 21
164.3389403261
 31
0.0
  0
LINE
  5
246
330
62
100
AcDbEntity
  8
STOPPER_FTONT_TI
  6
CONTINUOUS
 62
     7
100
AcDbLine
 10
223.5232855929
 20
164.3440076722
 30
0.0
 11
223.5232855929
 21
163.733543938
 31
0.0
  0
LINE
  5
247
330
62
100
AcDbEntity
  8
STOPPER_FTONT_TI
  6
CONTINUOUS
 62
     7
100
AcDbLine
 10
227.2732855929
 20
163.5831902124
 30
0.0
 11
227.2732855929
 21
164.0232761597
 31
0.0
  0
LINE
  5
248
330
62
100
AcDbEntity
  8
STOPPER_FTONT_TI
  6
CONTINUOUS
 62
     7
100
AcDbLine
 10
227.2732855929
 20
163.5831902124
 30
0.0
 11
227.2732855929
 21
163.5679661189
 31
0.0
  0
LINE
  5
249
330
62
100
AcDbEntity
  8
STOPPER_FTONT_TI
  6
CONTINUOUS
 62
     7
100
AcDbLine
 10
226.8232855929
 20
163.5679661189
 30
0.0
 11
227.2732855929
 21
163.5679661189
 31
0.0
  0
LINE
  5
24B
330
62
100
AcDbEntity
  8
BASE_PANEL_001_S
  6
CONTINUOUS
 62
     7
100
AcDbLine
 10
223.3764181918
 20
164.3440076722
 30
0.0
 11
223.3732855929
 21
164.3440076722
 31
0.0
  0
LINE
  5
24C
330
62
100
AcDbEntity
  8
BASE_PANEL_001_S
  6
CONTINUOUS
 62
     7
100
AcDbLine
 10
223.1932855929
 20
164.3440076722
 30
0.0
 11
153.4532855929
 21
164.3440076722
 31
0.0
  0
LINE
  5
24D
330
62
100
AcDbEntity
  8
BASE_PANEL_001_S
  6
CONTINUOUS
 62
     7
100
AcDbLine
 10
153.2732855929
 20
164.3440076722
 30
0.0
 11
153.270152994
 21
164.3440076722
 31
0.0
  0
LINE
  5
24E
330
62
100
AcDbEntity
  8
BASE_PANEL_001_S
  6
CONTINUOUS
 62
     7
100
AcDbLine
 10
222.8932855929
 20
168.9940076722
 30
0.0
 11
153.7532855929
 21
168.9940076722
 31
0.0
  0
LINE
  5
250
330
62
100
AcDbEntity
  8
HIRAZAGANE_001_S
  6
CONTINUOUS
 62
     7
100
AcDbLine
 10
162.6732855929
 20
164.2940076722
 30
0.0
 11
163.9732855929
 21
164.2940076722
 31
0.0
  0
LINE
  5
251
330
62
100
AcDbEntity
  8
HIRAZAGANE_001_S
  6
CONTINUOUS
 62
     7
100
AcDbLine
 10
163.9732855929
 20
164.2940076722
 30
0.0
 11
163.9732855929
 21
164.3440076722
 31
0.0
  0
LINE
  5
252
330
62
100
AcDbEntity
  8
HIRAZAGANE_001_S
  6
CONTINUOUS
 62
     7
100
AcDbLine
 10
162.6732855929
 20
164.3440076722
 30
0.0
 11
162.6732855929
 21
164.2940076722
 31
0.0
  0
LINE
  5
254
330
62
100
AcDbEntity
  8
BANE_M6_001_SEP-
  6
CONTINUOUS
 62
     7
100
AcDbLine
 10
162.7153382267
 20
164.1440076722
 30
0.0
 11
163.9332855929
 21
164.1440076722
 31
0.0
  0
LINE
  5
255
330
62
100
AcDbEntity
  8
BANE_M6_001_SEP-
  6
CONTINUOUS
 62
     7
100
AcDbLine
 10
162.7153382267
 20
164.1440076722
 30
0.0
 11
162.7153382267
 21
164.2940076722
 31
0.0
  0
LINE
  5
256
330
62
100
AcDbEntity
  8
BANE_M6_001_SEP-
  6
CONTINUOUS
 62
     7
100
AcDbLine
 10
163.9332855929
 20
164.1440076722
 30
0.0
 11
163.9332855929
 21
164.2940076722
 31
0.0
  0
LINE
  5
258
330
62
100
AcDbEntity
  8
ROKKAKU_M6_15_00
  6
CONTINUOUS
 62
     7
100
AcDbLine
 10
162.8982855929
 20
163.5440076722
 30
0.0
 11
163.7482855929
 21
163.5440076722
 31
0.0
  0
LINE
  5
259
330
62
100
AcDbEntity
  8
ROKKAKU_M6_15_00
  6
CONTINUOUS
 62
     7
100
AcDbLine
 10
162.8232855929
 20
163.5873089424
 30
0.0
 11
163.8232855929
 21
163.5873089424
 31
0.0
  0
LINE
  5
25A
330
62
100
AcDbEntity
  8
ROKKAKU_M6_15_00
  6
CONTINUOUS
 62
     7
100
AcDbLine
 10
162.8232855929
 20
164.1440076722
 30
0.0
 11
162.8232855929
 21
163.5873089424
 31
0.0
  0
LINE
  5
25B
330
62
100
AcDbEntity
  8
ROKKAKU_M6_15_00
  6
CONTINUOUS
 62
     7
100
AcDbLine
 10
163.8232855929
 20
163.5873089424
 30
0.0
 11
163.8232855929
 21
164.1440076722
 31
0.0
  0
LINE
  5
25C
330
62
100
AcDbEntity
  8
ROKKAKU_M6_15_00
  6
CONTINUOUS
 62
     7
100
AcDbLine
 10
162.8232855929
 20
163.5873089424
 30
0.0
 11
162.8982855929
 21
163.5440076722
 31
0.0
  0
LINE
  5
25D
330
62
100
AcDbEntity
  8
ROKKAKU_M6_15_00
  6
CONTINUOUS
 62
     7
100
AcDbLine
 10
163.7482855929
 20
163.5440076722
 30
0.0
 11
163.8232855929
 21
163.5873089424
 31
0.0
  0
LINE
  5
25E
330
62
100
AcDbEntity
  8
HIRAZAGANE_001_S
  6
CONTINUOUS
 62
     7
100
AcDbLine
 10
212.6732855929
 20
164.2940076722
 30
0.0
 11
213.9732855929
 21
164.2940076722
 31
0.0
  0
LINE
  5
25F
330
62
100
AcDbEntity
  8
HIRAZAGANE_001_S
  6
CONTINUOUS
 62
     7
100
AcDbLine
 10
213.9732855929
 20
164.2940076722
 30
0.0
 11
213.9732855929
 21
164.3440076722
 31
0.0
  0
LINE
  5
260
330
62
100
AcDbEntity
  8
HIRAZAGANE_001_S
  6
CONTINUOUS
 62
     7
100
AcDbLine
 10
212.6732855929
 20
164.3440076722
 30
0.0
 11
212.6732855929
 21
164.2940076722
 31
0.0
  0
LINE
  5
261
330
62
100
AcDbEntity
  8
BANE_M6_001_SEP-
  6
CONTINUOUS
 62
     7
100
AcDbLine
 10
212.7153382267
 20
164.1440076722
 30
0.0
 11
213.9332855929
 21
164.1440076722
 31
0.0
  0
LINE
  5
262
330
62
100
AcDbEntity
  8
BANE_M6_001_SEP-
  6
CONTINUOUS
 62
     7
100
AcDbLine
 10
212.7153382267
 20
164.1440076722
 30
0.0
 11
212.7153382267
 21
164.2940076722
 31
0.0
  0
LINE
  5
263
330
62
100
AcDbEntity
  8
BANE_M6_001_SEP-
  6
CONTINUOUS
 62
     7
100
AcDbLine
 10
213.9332855929
 20
164.1440076722
 30
0.0
 11
213.9332855929
 21
164.2940076722
 31
0.0
  0
LINE
  5
264
330
62
100
AcDbEntity
  8
ROKKAKU_M6_15_00
  6
CONTINUOUS
 62
     7
100
AcDbLine
 10
212.8982855929
 20
163.5440076722
 30
0.0
 11
213.7482855929
 21
163.5440076722
 31
0.0
  0
LINE
  5
265
330
62
100
AcDbEntity
  8
ROKKAKU_M6_15_00
  6
CONTINUOUS
 62
     7
100
AcDbLine
 10
212.8232855929
 20
163.5873089424
 30
0.0
 11
213.8232855929
 21
163.5873089424
 31
0.0
  0
LINE
  5
266
330
62
100
AcDbEntity
  8
ROKKAKU_M6_15_00
  6
CONTINUOUS
 62
     7
100
AcDbLine
 10
212.8232855929
 20
164.1440076722
 30
0.0
 11
212.8232855929
 21
163.5873089424
 31
0.0
  0
LINE
  5
267
330
62
100
AcDbEntity
  8
ROKKAKU_M6_15_00
  6
CONTINUOUS
 62
     7
100
AcDbLine
 10
213.8232855929
 20
163.5873089424
 30
0.0
 11
213.8232855929
 21
164.1440076722
 31
0.0
  0
LINE
  5
268
330
62
100
AcDbEntity
  8
ROKKAKU_M6_15_00
  6
CONTINUOUS
 62
     7
100
AcDbLine
 10
212.8232855929
 20
163.5873089424
 30
0.0
 11
212.8982855929
 21
163.5440076722
 31
0.0
  0
LINE
  5
269
330
62
100
AcDbEntity
  8
ROKKAKU_M6_15_00
  6
CONTINUOUS
 62
     7
100
AcDbLine
 10
213.7482855929
 20
163.5440076722
 30
0.0
 11
213.8232855929
 21
163.5873089424
 31
0.0
  0
ARC
  5
26B
330
62
100
AcDbEntity
  8
STOPPER_BACK_LEF
  6
CONTINUOUS
 62
     7
100
AcDbCircle
 10
150.9932855929
 20
163.2940076722
 30
0.0
 40
1.5
100
AcDbArc
 50
169.4764900914
 51
171.5661959021
  0
LINE
  5
26C
330
62
100
AcDbEntity
  8
ADJUSTER_001_SEP
  6
CONTINUOUS
 62
     7
100
AcDbLine
 10
152.8232855929
 20
153.5140076722
 30
0.0
 11
149.8232855929
 21
153.5140076722
 31
0.0
  0
LINE
  5
26D
330
62
100
AcDbEntity
  8
ADJUSTER_001_SEP
  6
CONTINUOUS
 62
     7
100
AcDbLine
 10
226.8232855929
 20
153.5140076722
 30
0.0
 11
223.8232855929
 21
153.5140076722
 31
0.0
  0
ARC
  5
26F
330
62
100
AcDbEntity
  8
TENNTOUBOUSHIKAN
  6
CONTINUOUS
 62
     7
100
AcDbCircle
 10
225.6532855929
 20
163.2940076722
 30
0.0
 40
1.5
100
AcDbArc
 50
8.4338040979
 51
10.5235099086
  0
ARC
  5
271
330
62
100
AcDbEntity
  8
CASTER_BACK_001_
  6
CONTINUOUS
 62
     7
100
AcDbCircle
 10
149.8232855929
 20
153.6640076722
 30
0.0
 40
0.1500000000000001
100
AcDbArc
 50
270.0
 51
280.2742686295
  0
ARC
  5
272
330
62
100
AcDbEntity
  8
CASTER_BACK_001_
  6
CONTINUOUS
 62
     7
100
AcDbCircle
 10
148.8172576536
 20
163.0640076722
 30
0.0
 40
0.4500000000000004
100
AcDbArc
 50
90.0
 51
173.8614524269
  0
ARC
  5
273
330
62
100
AcDbEntity
  8
CASTER_BACK_001_
  6
CONTINUOUS
 62
     7
100
AcDbCircle
 10
148.8172576536
 20
153.9640076722
 30
0.0
 40
0.4499999999999988
100
AcDbArc
 50
186.1385475731
 51
270.0
  0
ARC
  5
274
330
62
100
AcDbEntity
  8
CASTER_BACK_001_
  6
CONTINUOUS
 62
     7
100
AcDbCircle
 10
191.1232855929
 20
158.5140076722
 30
0.0
 40
43.00000000000001
100
AcDbArc
 50
185.6052688132
 51
186.1385475731
  0
ARC
  5
275
330
62
100
AcDbEntity
  8
CASTER_BACK_001_
  6
CONTINUOUS
 62
     7
100
AcDbCircle
 10
191.1232855929
 20
158.5140076722
 30
0.0
 40
43.00000000000001
100
AcDbArc
 50
173.8614524269
 51
174.3947311868
  0
ARC
  5
276
330
62
100
AcDbEntity
  8
CASTER_BACK_001_
  6
CONTINUOUS
 62
     7
100
AcDbCircle
 10
191.1232855929
 20
158.5140076722
 30
0.0
 40
42.98000000000001
100
AcDbArc
 50
184.7433623302
 51
185.3267093737
  0
ARC
  5
277
330
62
100
AcDbEntity
  8
CASTER_BACK_001_
  6
CONTINUOUS
 62
     7
100
AcDbCircle
 10
191.1232855929
 20
158.5140076722
 30
0.0
 40
42.98
100
AcDbArc
 50
174.6732906263
 51
175.2566376698
  0
ARC
  5
278
330
62
100
AcDbEntity
  8
CASTER_BACK_001_
  6
CONTINUOUS
 62
     7
100
AcDbCircle
 10
191.1232855929
 20
158.5140076722
 30
0.0
 40
42.98000000000001
100
AcDbArc
 50
182.3335351207
 51
183.4053177191
  0
ARC
  5
279
330
62
100
AcDbEntity
  8
CASTER_BACK_001_
  6
CONTINUOUS
 62
     7
100
AcDbCircle
 10
191.1232855929
 20
158.5140076722
 30
0.0
 40
42.98000000000001
100
AcDbArc
 50
176.5946822809
 51
177.6664648793
  0
ARC
  5
27A
330
62
100
AcDbEntity
  8
CASTER_BACK_001_
  6
CONTINUOUS
 62
     7
100
AcDbCircle
 10
191.1232855929
 20
158.5140076722
 30
0.0
 40
43.0
100
AcDbArc
 50
177.6675508445
 51
182.3324491555
  0
ARC
  5
27B
330
62
100
AcDbEntity
  8
CASTER_BACK_001_
  6
CONTINUOUS
 62
     7
100
AcDbCircle
 10
148.2690862654
 20
161.0640076722
 30
0.0
 40
0.0500000000000001
100
AcDbArc
 50
90.0
 51
176.5946822809
  0
ARC
  5
27C
330
62
100
AcDbEntity
  8
CASTER_BACK_001_
  6
CONTINUOUS
 62
     7
100
AcDbCircle
 10
148.2690862654
 20
155.9640076722
 30
0.0
 40
0.0499999999999968
100
AcDbArc
 50
183.4053177191
 51
270.0
  0
ARC
  5
27D
330
62
100
AcDbEntity
  8
CASTER_BACK_001_
  6
CONTINUOUS
 62
     7
100
AcDbCircle
 10
148.3403170189
 20
162.0640076722
 30
0.0
 40
0.0500000000000028
100
AcDbArc
 50
175.2566376697
 51
180.0
  0
ARC
  5
27E
330
62
100
AcDbEntity
  8
CASTER_BACK_001_
  6
CONTINUOUS
 62
     7
100
AcDbCircle
 10
148.3403170189
 20
154.9640076722
 30
0.0
 40
0.0500000000000001
100
AcDbArc
 50
180.0
 51
184.7433623302
  0
ARC
  5
27F
330
62
100
AcDbEntity
  8
CASTER_BACK_001_
  6
CONTINUOUS
 62
     7
100
AcDbCircle
 10
152.8232855929
 20
153.6640076722
 30
0.0
 40
0.1500000000000002
100
AcDbArc
 50
259.7257313705
 51
270.0
  0
ARC
  5
280
330
62
100
AcDbEntity
  8
CASTER_BACK_001_
  6
CONTINUOUS
 62
     7
100
AcDbCircle
 10
153.8293135322
 20
153.9640076722
 30
0.0
 40
0.4500000000000002
100
AcDbArc
 50
270.0
 51
353.8614524269
  0
ARC
  5
281
330
62
100
AcDbEntity
  8
CASTER_BACK_001_
  6
CONTINUOUS
 62
     7
100
AcDbCircle
 10
153.8293135322
 20
163.0640076722
 30
0.0
 40
0.4499999999999988
100
AcDbArc
 50
6.1385475731
 51
90.0
  0
ARC
  5
282
330
62
100
AcDbEntity
  8
CASTER_BACK_001_
  6
CONTINUOUS
 62
     7
100
AcDbCircle
 10
111.5232855929
 20
158.5140076722
 30
0.0
 40
43.00000000000001
100
AcDbArc
 50
353.8614524269
 51
354.3947311868
  0
ARC
  5
283
330
62
100
AcDbEntity
  8
CASTER_BACK_001_
  6
CONTINUOUS
 62
     7
100
AcDbCircle
 10
111.5232855929
 20
158.5140076722
 30
0.0
 40
43.00000000000001
100
AcDbArc
 50
5.6052688132
 51
6.1385475731
  0
ARC
  5
284
330
62
100
AcDbEntity
  8
CASTER_BACK_001_
  6
CONTINUOUS
 62
     7
100
AcDbCircle
 10
111.5232855929
 20
158.5140076722
 30
0.0
 40
42.98000000000001
100
AcDbArc
 50
354.6732906263
 51
355.2566376698
  0
ARC
  5
285
330
62
100
AcDbEntity
  8
CASTER_BACK_001_
  6
CONTINUOUS
 62
     7
100
AcDbCircle
 10
111.5232855929
 20
158.5140076722
 30
0.0
 40
42.98000000000001
100
AcDbArc
 50
4.7433623302
 51
5.3267093737
  0
ARC
  5
286
330
62
100
AcDbEntity
  8
CASTER_BACK_001_
  6
CONTINUOUS
 62
     7
100
AcDbCircle
 10
111.5232855929
 20
158.5140076722
 30
0.0
 40
42.98000000000001
100
AcDbArc
 50
356.5946822809
 51
357.6664648793
  0
ARC
  5
287
330
62
100
AcDbEntity
  8
CASTER_BACK_001_
  6
CONTINUOUS
 62
     7
100
AcDbCircle
 10
111.5232855929
 20
158.5140076722
 30
0.0
 40
42.98000000000001
100
AcDbArc
 50
2.3335351207
 51
3.4053177191
  0
ARC
  5
288
330
62
100
AcDbEntity
  8
CASTER_BACK_001_
  6
CONTINUOUS
 62
     7
100
AcDbCircle
 10
111.5232855929
 20
158.5140076722
 30
0.0
 40
43.00000000000001
100
AcDbArc
 50
357.6675508445
 51
0.0
  0
ARC
  5
289
330
62
100
AcDbEntity
  8
CASTER_BACK_001_
  6
CONTINUOUS
 62
     7
100
AcDbCircle
 10
111.5232855929
 20
158.5140076722
 30
0.0
 40
43.0
100
AcDbArc
 50
0.0
 51
2.3324491555
  0
ARC
  5
28A
330
62
100
AcDbEntity
  8
CASTER_BACK_001_
  6
CONTINUOUS
 62
     7
100
AcDbCircle
 10
154.3774849204
 20
155.9640076722
 30
0.0
 40
0.0500000000000001
100
AcDbArc
 50
270.0
 51
356.5946822809
  0
ARC
  5
28B
330
62
100
AcDbEntity
  8
CASTER_BACK_001_
  6
CONTINUOUS
 62
     7
100
AcDbCircle
 10
154.3774849204
 20
161.0640076722
 30
0.0
 40
0.0499999999999967
100
AcDbArc
 50
3.4053177192
 51
90.0
  0
ARC
  5
28C
330
62
100
AcDbEntity
  8
CASTER_BACK_001_
  6
CONTINUOUS
 62
     7
100
AcDbCircle
 10
154.3062541668
 20
154.9640076722
 30
0.0
 40
0.0499999999999974
100
AcDbArc
 50
355.2566376698
 51
0.0
  0
ARC
  5
28D
330
62
100
AcDbEntity
  8
CASTER_BACK_001_
  6
CONTINUOUS
 62
     7
100
AcDbCircle
 10
154.3062541668
 20
162.0640076722
 30
0.0
 40
0.0500000000000001
100
AcDbArc
 50
0.0
 51
4.7433623303
  0
ARC
  5
28E
330
62
100
AcDbEntity
  8
CASTER_BACK_001_
  6
CONTINUOUS
 62
     7
100
AcDbCircle
 10
223.8232855929
 20
153.6640076722
 30
0.0
 40
0.1500000000000001
100
AcDbArc
 50
270.0
 51
280.2742686295
  0
ARC
  5
28F
330
62
100
AcDbEntity
  8
CASTER_BACK_001_
  6
CONTINUOUS
 62
     7
100
AcDbCircle
 10
222.8172576536
 20
163.0640076722
 30
0.0
 40
0.4500000000000004
100
AcDbArc
 50
90.0
 51
173.8614524269
  0
ARC
  5
290
330
62
100
AcDbEntity
  8
CASTER_BACK_001_
  6
CONTINUOUS
 62
     7
100
AcDbCircle
 10
222.8172576536
 20
153.9640076722
 30
0.0
 40
0.4499999999999988
100
AcDbArc
 50
186.1385475731
 51
270.0
  0
ARC
  5
291
330
62
100
AcDbEntity
  8
CASTER_BACK_001_
  6
CONTINUOUS
 62
     7
100
AcDbCircle
 10
265.1232855929
 20
158.5140076722
 30
0.0
 40
43.00000000000001
100
AcDbArc
 50
185.6052688132
 51
186.1385475731
  0
ARC
  5
292
330
62
100
AcDbEntity
  8
CASTER_BACK_001_
  6
CONTINUOUS
 62
     7
100
AcDbCircle
 10
265.1232855929
 20
158.5140076722
 30
0.0
 40
43.00000000000001
100
AcDbArc
 50
173.8614524269
 51
174.3947311868
  0
ARC
  5
293
330
62
100
AcDbEntity
  8
CASTER_BACK_001_
  6
CONTINUOUS
 62
     7
100
AcDbCircle
 10
265.1232855929
 20
158.5140076722
 30
0.0
 40
42.98000000000001
100
AcDbArc
 50
184.7433623302
 51
185.3267093737
  0
ARC
  5
294
330
62
100
AcDbEntity
  8
CASTER_BACK_001_
  6
CONTINUOUS
 62
     7
100
AcDbCircle
 10
265.1232855929
 20
158.5140076722
 30
0.0
 40
42.98
100
AcDbArc
 50
174.6732906263
 51
175.2566376698
  0
ARC
  5
295
330
62
100
AcDbEntity
  8
CASTER_BACK_001_
  6
CONTINUOUS
 62
     7
100
AcDbCircle
 10
265.1232855929
 20
158.5140076722
 30
0.0
 40
42.98000000000001
100
AcDbArc
 50
182.3335351207
 51
183.4053177191
  0
ARC
  5
296
330
62
100
AcDbEntity
  8
CASTER_BACK_001_
  6
CONTINUOUS
 62
     7
100
AcDbCircle
 10
265.1232855929
 20
158.5140076722
 30
0.0
 40
42.98000000000001
100
AcDbArc
 50
176.5946822809
 51
177.6664648793
  0
ARC
  5
297
330
62
100
AcDbEntity
  8
CASTER_BACK_001_
  6
CONTINUOUS
 62
     7
100
AcDbCircle
 10
265.1232855929
 20
158.5140076722
 30
0.0
 40
43.0
100
AcDbArc
 50
177.6675508445
 51
182.3324491555
  0
ARC
  5
298
330
62
100
AcDbEntity
  8
CASTER_BACK_001_
  6
CONTINUOUS
 62
     7
100
AcDbCircle
 10
222.2690862654
 20
161.0640076722
 30
0.0
 40
0.0500000000000001
100
AcDbArc
 50
90.0
 51
176.5946822809
  0
ARC
  5
299
330
62
100
AcDbEntity
  8
CASTER_BACK_001_
  6
CONTINUOUS
 62
     7
100
AcDbCircle
 10
222.2690862654
 20
155.9640076722
 30
0.0
 40
0.0499999999999968
100
AcDbArc
 50
183.4053177191
 51
270.0
  0
ARC
  5
29A
330
62
100
AcDbEntity
  8
CASTER_BACK_001_
  6
CONTINUOUS
 62
     7
100
AcDbCircle
 10
222.3403170189
 20
162.0640076722
 30
0.0
 40
0.0500000000000028
100
AcDbArc
 50
175.2566376697
 51
180.0
  0
ARC
  5
29B
330
62
100
AcDbEntity
  8
CASTER_BACK_001_
  6
CONTINUOUS
 62
     7
100
AcDbCircle
 10
222.3403170189
 20
154.9640076722
 30
0.0
 40
0.0500000000000001
100
AcDbArc
 50
180.0
 51
184.7433623302
  0
ARC
  5
29C
330
62
100
AcDbEntity
  8
CASTER_BACK_001_
  6
CONTINUOUS
 62
     7
100
AcDbCircle
 10
226.8232855929
 20
153.6640076722
 30
0.0
 40
0.1500000000000002
100
AcDbArc
 50
259.7257313705
 51
270.0
  0
ARC
  5
29D
330
62
100
AcDbEntity
  8
CASTER_BACK_001_
  6
CONTINUOUS
 62
     7
100
AcDbCircle
 10
227.8293135322
 20
153.9640076722
 30
0.0
 40
0.4500000000000002
100
AcDbArc
 50
270.0
 51
353.8614524269
  0
ARC
  5
29E
330
62
100
AcDbEntity
  8
CASTER_BACK_001_
  6
CONTINUOUS
 62
     7
100
AcDbCircle
 10
227.8293135322
 20
163.0640076722
 30
0.0
 40
0.4499999999999988
100
AcDbArc
 50
6.1385475731
 51
90.0
  0
ARC
  5
29F
330
62
100
AcDbEntity
  8
CASTER_BACK_001_
  6
CONTINUOUS
 62
     7
100
AcDbCircle
 10
185.5232855929
 20
158.5140076722
 30
0.0
 40
43.00000000000001
100
AcDbArc
 50
353.8614524269
 51
354.3947311868
  0
ARC
  5
2A0
330
62
100
AcDbEntity
  8
CASTER_BACK_001_
  6
CONTINUOUS
 62
     7
100
AcDbCircle
 10
185.5232855929
 20
158.5140076722
 30
0.0
 40
43.00000000000001
100
AcDbArc
 50
5.6052688132
 51
6.1385475731
  0
ARC
  5
2A1
330
62
100
AcDbEntity
  8
CASTER_BACK_001_
  6
CONTINUOUS
 62
     7
100
AcDbCircle
 10
185.5232855929
 20
158.5140076722
 30
0.0
 40
42.98000000000001
100
AcDbArc
 50
354.6732906263
 51
355.2566376698
  0
ARC
  5
2A2
330
62
100
AcDbEntity
  8
CASTER_BACK_001_
  6
CONTINUOUS
 62
     7
100
AcDbCircle
 10
185.5232855929
 20
158.5140076722
 30
0.0
 40
42.98000000000001
100
AcDbArc
 50
4.7433623302
 51
5.3267093737
  0
ARC
  5
2A3
330
62
100
AcDbEntity
  8
CASTER_BACK_001_
  6
CONTINUOUS
 62
     7
100
AcDbCircle
 10
185.5232855929
 20
158.5140076722
 30
0.0
 40
42.98000000000001
100
AcDbArc
 50
356.5946822809
 51
357.6664648793
  0
ARC
  5
2A4
330
62
100
AcDbEntity
  8
CASTER_BACK_001_
  6
CONTINUOUS
 62
     7
100
AcDbCircle
 10
185.5232855929
 20
158.5140076722
 30
0.0
 40
42.98000000000001
100
AcDbArc
 50
2.3335351207
 51
3.4053177191
  0
ARC
  5
2A5
330
62
100
AcDbEntity
  8
CASTER_BACK_001_
  6
CONTINUOUS
 62
     7
100
AcDbCircle
 10
185.5232855929
 20
158.5140076722
 30
0.0
 40
43.00000000000001
100
AcDbArc
 50
357.6675508445
 51
0.0
  0
ARC
  5
2A6
330
62
100
AcDbEntity
  8
CASTER_BACK_001_
  6
CONTINUOUS
 62
     7
100
AcDbCircle
 10
185.5232855929
 20
158.5140076722
 30
0.0
 40
43.0
100
AcDbArc
 50
0.0
 51
2.3324491555
  0
ARC
  5
2A7
330
62
100
AcDbEntity
  8
CASTER_BACK_001_
  6
CONTINUOUS
 62
     7
100
AcDbCircle
 10
228.3774849204
 20
155.9640076722
 30
0.0
 40
0.0500000000000001
100
AcDbArc
 50
270.0
 51
356.5946822809
  0
ARC
  5
2A8
330
62
100
AcDbEntity
  8
CASTER_BACK_001_
  6
CONTINUOUS
 62
     7
100
AcDbCircle
 10
228.3774849204
 20
161.0640076722
 30
0.0
 40
0.0499999999999967
100
AcDbArc
 50
3.4053177192
 51
90.0
  0
ARC
  5
2A9
330
62
100
AcDbEntity
  8
CASTER_BACK_001_
  6
CONTINUOUS
 62
     7
100
AcDbCircle
 10
228.3062541668
 20
154.9640076722
 30
0.0
 40
0.0499999999999974
100
AcDbArc
 50
355.2566376698
 51
0.0
  0
ARC
  5
2AA
330
62
100
AcDbEntity
  8
CASTER_BACK_001_
  6
CONTINUOUS
 62
     7
100
AcDbCircle
 10
228.3062541668
 20
162.0640076722
 30
0.0
 40
0.0500000000000001
100
AcDbArc
 50
0.0
 51
4.7433623303
  0
LINE
  5
2AC
330
62
100
AcDbEntity
  8
CASTER_FRONT_STO
  6
CONTINUOUS
 62
     7
100
AcDbLine
 10
149.9732855929
 20
154.5140076722
 30
0.0
 11
149.9732855929
 21
155.4940076722
 31
0.0
  0
LINE
  5
2AD
330
62
100
AcDbEntity
  8
CASTER_FRONT_STO
  6
CONTINUOUS
 62
     7
100
AcDbLine
 10
148.3288934369
 20
154.3140076722
 30
0.0
 11
148.3288934369
 21
162.7140076722
 31
0.0
  0
LINE
  5
2AE
330
62
100
AcDbEntity
  8
CASTER_FRONT_STO
  6
CONTINUOUS
 62
     7
100
AcDbLine
 10
148.178927407
 20
156.7640076722
 30
0.0
 11
148.178927407
 21
160.2640076722
 31
0.0
  0
LINE
  5
2AF
330
62
100
AcDbEntity
  8
CASTER_FRONT_STO
  6
CONTINUOUS
 62
     7
100
AcDbLine
 10
148.1589108156
 20
156.7640076722
 30
0.0
 11
148.1589108156
 21
160.2640076722
 31
0.0
  0
LINE
  5
2B0
330
62
100
AcDbEntity
  8
CASTER_FRONT_STO
  6
CONTINUOUS
 62
     7
100
AcDbLine
 10
152.6732855929
 20
154.5140076722
 30
0.0
 11
152.6732855929
 21
155.4940076722
 31
0.0
  0
LINE
  5
2B1
330
62
100
AcDbEntity
  8
CASTER_FRONT_STO
  6
CONTINUOUS
 62
     7
100
AcDbLine
 10
154.3176777489
 20
154.3140076722
 30
0.0
 11
154.3176777489
 21
162.7140076722
 31
0.0
  0
LINE
  5
2B2
330
62
100
AcDbEntity
  8
CASTER_FRONT_STO
  6
CONTINUOUS
 62
     7
100
AcDbLine
 10
154.4676437788
 20
156.7640076722
 30
0.0
 11
154.4676437788
 21
160.2640076722
 31
0.0
  0
LINE
  5
2B3
330
62
100
AcDbEntity
  8
CASTER_FRONT_STO
  6
CONTINUOUS
 62
     7
100
AcDbLine
 10
154.4876603701
 20
156.7640076722
 30
0.0
 11
154.4876603701
 21
160.2640076722
 31
0.0
  0
ARC
  5
2B4
330
62
100
AcDbEntity
  8
CASTER_FRONT_STO
  6
CONTINUOUS
 62
     7
100
AcDbCircle
 10
149.8232855929
 20
153.6640076722
 30
0.0
 40
0.1500000000000001
100
AcDbArc
 50
270.0
 51
280.2742686295
  0
LINE
  5
2B5
330
62
100
AcDbEntity
  8
CASTER_FRONT_STO
  6
CONTINUOUS
 62
     7
100
AcDbLine
 10
149.8232855929
 20
163.5140076722
 30
0.0
 11
148.8172576536
 21
163.5140076722
 31
0.0
  0
LINE
  5
2B6
330
62
100
AcDbEntity
  8
CASTER_FRONT_STO
  6
CONTINUOUS
 62
     7
100
AcDbLine
 10
148.8172576536
 20
153.5140076722
 30
0.0
 11
149.8232855929
 21
153.5140076722
 31
0.0
  0
ARC
  5
2B7
330
62
100
AcDbEntity
  8
CASTER_FRONT_STO
  6
CONTINUOUS
 62
     7
100
AcDbCircle
 10
148.8172576536
 20
163.0640076722
 30
0.0
 40
0.4500000000000004
100
AcDbArc
 50
90.0
 51
173.8614524269
  0
ARC
  5
2B8
330
62
100
AcDbEntity
  8
CASTER_FRONT_STO
  6
CONTINUOUS
 62
     7
100
AcDbCircle
 10
148.8172576536
 20
153.9640076722
 30
0.0
 40
0.4499999999999988
100
AcDbArc
 50
186.1385475731
 51
270.0
  0
ARC
  5
2B9
330
62
100
AcDbEntity
  8
CASTER_FRONT_STO
  6
CONTINUOUS
 62
     7
100
AcDbCircle
 10
191.1232855929
 20
158.5140076722
 30
0.0
 40
43.00000000000001
100
AcDbArc
 50
185.6052688132
 51
186.1385475731
  0
ARC
  5
2BA
330
62
100
AcDbEntity
  8
CASTER_FRONT_STO
  6
CONTINUOUS
 62
     7
100
AcDbCircle
 10
191.1232855929
 20
158.5140076722
 30
0.0
 40
43.00000000000001
100
AcDbArc
 50
173.8614524269
 51
174.3947311868
  0
ARC
  5
2BB
330
62
100
AcDbEntity
  8
CASTER_FRONT_STO
  6
CONTINUOUS
 62
     7
100
AcDbCircle
 10
191.1232855929
 20
158.5140076722
 30
0.0
 40
42.98000000000001
100
AcDbArc
 50
184.7433623302
 51
185.3267093737
  0
ARC
  5
2BC
330
62
100
AcDbEntity
  8
CASTER_FRONT_STO
  6
CONTINUOUS
 62
     7
100
AcDbCircle
 10
191.1232855929
 20
158.5140076722
 30
0.0
 40
42.98
100
AcDbArc
 50
174.6732906263
 51
175.2566376698
  0
LINE
  5
2BD
330
62
100
AcDbEntity
  8
CASTER_FRONT_STO
  6
CONTINUOUS
 62
     7
100
AcDbLine
 10
148.2903170189
 20
161.1140076722
 30
0.0
 11
148.2690862654
 21
161.1140076722
 31
0.0
  0
LINE
  5
2BE
330
62
100
AcDbEntity
  8
CASTER_FRONT_STO
  6
CONTINUOUS
 62
     7
100
AcDbLine
 10
148.2690862654
 20
155.9140076722
 30
0.0
 11
148.2903170189
 21
155.9140076722
 31
0.0
  0
ARC
  5
2BF
330
62
100
AcDbEntity
  8
CASTER_FRONT_STO
  6
CONTINUOUS
 62
     7
100
AcDbCircle
 10
191.1232855929
 20
158.5140076722
 30
0.0
 40
42.98000000000001
100
AcDbArc
 50
182.3335351207
 51
183.4053177191
  0
ARC
  5
2C0
330
62
100
AcDbEntity
  8
CASTER_FRONT_STO
  6
CONTINUOUS
 62
     7
100
AcDbCircle
 10
191.1232855929
 20
158.5140076722
 30
0.0
 40
42.98000000000001
100
AcDbArc
 50
176.5946822809
 51
177.6664648793
  0
LINE
  5
2C1
330
62
100
AcDbEntity
  8
CASTER_FRONT_STO
  6
CONTINUOUS
 62
     7
100
AcDbLine
 10
148.178927407
 20
160.2640076722
 30
0.0
 11
148.1589108156
 21
160.2640076722
 31
0.0
  0
LINE
  5
2C2
330
62
100
AcDbEntity
  8
CASTER_FRONT_STO
  6
CONTINUOUS
 62
     7
100
AcDbLine
 10
148.1589108156
 20
156.7640076722
 30
0.0
 11
148.178927407
 21
156.7640076722
 31
0.0
  0
ARC
  5
2C3
330
62
100
AcDbEntity
  8
CASTER_FRONT_STO
  6
CONTINUOUS
 62
     7
100
AcDbCircle
 10
191.1232855929
 20
158.5140076722
 30
0.0
 40
43.0
100
AcDbArc
 50
177.6675508445
 51
182.3324491555
  0
ARC
  5
2C4
330
62
100
AcDbEntity
  8
CASTER_FRONT_STO
  6
CONTINUOUS
 62
     7
100
AcDbCircle
 10
148.2690862654
 20
161.0640076722
 30
0.0
 40
0.0500000000000001
100
AcDbArc
 50
90.0
 51
176.5946822809
  0
ARC
  5
2C5
330
62
100
AcDbEntity
  8
CASTER_FRONT_STO
  6
CONTINUOUS
 62
     7
100
AcDbCircle
 10
148.2690862654
 20
155.9640076722
 30
0.0
 40
0.0499999999999968
100
AcDbArc
 50
183.4053177191
 51
270.0
  0
ARC
  5
2C6
330
62
100
AcDbEntity
  8
CASTER_FRONT_STO
  6
CONTINUOUS
 62
     7
100
AcDbCircle
 10
148.3403170189
 20
162.0640076722
 30
0.0
 40
0.0500000000000028
100
AcDbArc
 50
175.2566376697
 51
180.0
  0
ARC
  5
2C7
330
62
100
AcDbEntity
  8
CASTER_FRONT_STO
  6
CONTINUOUS
 62
     7
100
AcDbCircle
 10
148.3403170189
 20
154.9640076722
 30
0.0
 40
0.0500000000000001
100
AcDbArc
 50
180.0
 51
184.7433623302
  0
LINE
  5
2C8
330
62
100
AcDbEntity
  8
CASTER_FRONT_STO
  6
CONTINUOUS
 62
     7
100
AcDbLine
 10
148.2903170189
 20
162.0640076722
 30
0.0
 11
148.2903170189
 21
154.9640076722
 31
0.0
  0
ARC
  5
2C9
330
62
100
AcDbEntity
  8
CASTER_FRONT_STO
  6
CONTINUOUS
 62
     7
100
AcDbCircle
 10
152.8232855929
 20
153.6640076722
 30
0.0
 40
0.1500000000000002
100
AcDbArc
 50
259.7257313705
 51
270.0
  0
LINE
  5
2CA
330
62
100
AcDbEntity
  8
CASTER_FRONT_STO
  6
CONTINUOUS
 62
     7
100
AcDbLine
 10
152.8232855929
 20
153.5140076722
 30
0.0
 11
153.8293135322
 21
153.5140076722
 31
0.0
  0
LINE
  5
2CB
330
62
100
AcDbEntity
  8
CASTER_FRONT_STO
  6
CONTINUOUS
 62
     7
100
AcDbLine
 10
153.8293135322
 20
163.5140076722
 30
0.0
 11
153.1232855929
 21
163.5140076722
 31
0.0
  0
ARC
  5
2CC
330
62
100
AcDbEntity
  8
CASTER_FRONT_STO
  6
CONTINUOUS
 62
     7
100
AcDbCircle
 10
153.8293135322
 20
153.9640076722
 30
0.0
 40
0.4500000000000002
100
AcDbArc
 50
270.0
 51
353.8614524269
  0
ARC
  5
2CD
330
62
100
AcDbEntity
  8
CASTER_FRONT_STO
  6
CONTINUOUS
 62
     7
100
AcDbCircle
 10
153.8293135322
 20
163.0640076722
 30
0.0
 40
0.4499999999999988
100
AcDbArc
 50
6.1385475731
 51
90.0
  0
ARC
  5
2CE
330
62
100
AcDbEntity
  8
CASTER_FRONT_STO
  6
CONTINUOUS
 62
     7
100
AcDbCircle
 10
111.5232855929
 20
158.5140076722
 30
0.0
 40
43.00000000000001
100
AcDbArc
 50
353.8614524269
 51
354.3947311868
  0
ARC
  5
2CF
330
62
100
AcDbEntity
  8
CASTER_FRONT_STO
  6
CONTINUOUS
 62
     7
100
AcDbCircle
 10
111.5232855929
 20
158.5140076722
 30
0.0
 40
43.00000000000001
100
AcDbArc
 50
5.6052688132
 51
6.1385475731
  0
ARC
  5
2D0
330
62
100
AcDbEntity
  8
CASTER_FRONT_STO
  6
CONTINUOUS
 62
     7
100
AcDbCircle
 10
111.5232855929
 20
158.5140076722
 30
0.0
 40
42.98000000000001
100
AcDbArc
 50
354.6732906263
 51
355.2566376698
  0
ARC
  5
2D1
330
62
100
AcDbEntity
  8
CASTER_FRONT_STO
  6
CONTINUOUS
 62
     7
100
AcDbCircle
 10
111.5232855929
 20
158.5140076722
 30
0.0
 40
42.98000000000001
100
AcDbArc
 50
4.7433623302
 51
5.3267093737
  0
LINE
  5
2D2
330
62
100
AcDbEntity
  8
CASTER_FRONT_STO
  6
CONTINUOUS
 62
     7
100
AcDbLine
 10
154.3562541668
 20
155.9140076722
 30
0.0
 11
154.3774849204
 21
155.9140076722
 31
0.0
  0
LINE
  5
2D3
330
62
100
AcDbEntity
  8
CASTER_FRONT_STO
  6
CONTINUOUS
 62
     7
100
AcDbLine
 10
154.3774849204
 20
161.1140076722
 30
0.0
 11
154.3562541668
 21
161.1140076722
 31
0.0
  0
ARC
  5
2D4
330
62
100
AcDbEntity
  8
CASTER_FRONT_STO
  6
CONTINUOUS
 62
     7
100
AcDbCircle
 10
111.5232855929
 20
158.5140076722
 30
0.0
 40
42.98000000000001
100
AcDbArc
 50
356.5946822809
 51
357.6664648793
  0
ARC
  5
2D5
330
62
100
AcDbEntity
  8
CASTER_FRONT_STO
  6
CONTINUOUS
 62
     7
100
AcDbCircle
 10
111.5232855929
 20
158.5140076722
 30
0.0
 40
42.98000000000001
100
AcDbArc
 50
2.3335351207
 51
3.4053177191
  0
LINE
  5
2D6
330
62
100
AcDbEntity
  8
CASTER_FRONT_STO
  6
CONTINUOUS
 62
     7
100
AcDbLine
 10
154.4676437788
 20
156.7640076722
 30
0.0
 11
154.4876603701
 21
156.7640076722
 31
0.0
  0
LINE
  5
2D7
330
62
100
AcDbEntity
  8
CASTER_FRONT_STO
  6
CONTINUOUS
 62
     7
100
AcDbLine
 10
154.4876603701
 20
160.2640076722
 30
0.0
 11
154.4676437788
 21
160.2640076722
 31
0.0
  0
ARC
  5
2D8
330
62
100
AcDbEntity
  8
CASTER_FRONT_STO
  6
CONTINUOUS
 62
     7
100
AcDbCircle
 10
111.5232855929
 20
158.5140076722
 30
0.0
 40
43.00000000000001
100
AcDbArc
 50
357.6675508445
 51
0.0
  0
ARC
  5
2D9
330
62
100
AcDbEntity
  8
CASTER_FRONT_STO
  6
CONTINUOUS
 62
     7
100
AcDbCircle
 10
111.5232855929
 20
158.5140076722
 30
0.0
 40
43.0
100
AcDbArc
 50
0.0
 51
2.3324491555
  0
ARC
  5
2DA
330
62
100
AcDbEntity
  8
CASTER_FRONT_STO
  6
CONTINUOUS
 62
     7
100
AcDbCircle
 10
154.3774849204
 20
155.9640076722
 30
0.0
 40
0.0500000000000001
100
AcDbArc
 50
270.0
 51
356.5946822809
  0
ARC
  5
2DB
330
62
100
AcDbEntity
  8
CASTER_FRONT_STO
  6
CONTINUOUS
 62
     7
100
AcDbCircle
 10
154.3774849204
 20
161.0640076722
 30
0.0
 40
0.0499999999999967
100
AcDbArc
 50
3.4053177192
 51
90.0
  0
ARC
  5
2DC
330
62
100
AcDbEntity
  8
CASTER_FRONT_STO
  6
CONTINUOUS
 62
     7
100
AcDbCircle
 10
154.3062541668
 20
154.9640076722
 30
0.0
 40
0.0499999999999974
100
AcDbArc
 50
355.2566376698
 51
0.0
  0
ARC
  5
2DD
330
62
100
AcDbEntity
  8
CASTER_FRONT_STO
  6
CONTINUOUS
 62
     7
100
AcDbCircle
 10
154.3062541668
 20
162.0640076722
 30
0.0
 40
0.0500000000000001
100
AcDbArc
 50
0.0
 51
4.7433623303
  0
LINE
  5
2DE
330
62
100
AcDbEntity
  8
CASTER_FRONT_STO
  6
CONTINUOUS
 62
     7
100
AcDbLine
 10
154.3562541668
 20
154.9640076722
 30
0.0
 11
154.3562541668
 21
162.0640076722
 31
0.0
  0
LINE
  5
2DF
330
62
100
AcDbEntity
  8
CASTER_FRONT_STO
  6
CONTINUOUS
 62
     7
100
AcDbLine
 10
223.9732855929
 20
154.5140076722
 30
0.0
 11
223.9732855929
 21
155.4940076722
 31
0.0
  0
LINE
  5
2E0
330
62
100
AcDbEntity
  8
CASTER_FRONT_STO
  6
CONTINUOUS
 62
     7
100
AcDbLine
 10
222.3288934369
 20
154.3140076722
 30
0.0
 11
222.3288934369
 21
162.7140076722
 31
0.0
  0
LINE
  5
2E1
330
62
100
AcDbEntity
  8
CASTER_FRONT_STO
  6
CONTINUOUS
 62
     7
100
AcDbLine
 10
222.178927407
 20
156.7640076722
 30
0.0
 11
222.178927407
 21
160.2640076722
 31
0.0
  0
LINE
  5
2E2
330
62
100
AcDbEntity
  8
CASTER_FRONT_STO
  6
CONTINUOUS
 62
     7
100
AcDbLine
 10
222.1589108156
 20
156.7640076722
 30
0.0
 11
222.1589108156
 21
160.2640076722
 31
0.0
  0
LINE
  5
2E3
330
62
100
AcDbEntity
  8
CASTER_FRONT_STO
  6
CONTINUOUS
 62
     7
100
AcDbLine
 10
226.6732855929
 20
154.5140076722
 30
0.0
 11
226.6732855929
 21
155.4940076722
 31
0.0
  0
LINE
  5
2E4
330
62
100
AcDbEntity
  8
CASTER_FRONT_STO
  6
CONTINUOUS
 62
     7
100
AcDbLine
 10
228.3176777489
 20
154.3140076722
 30
0.0
 11
228.3176777489
 21
162.7140076722
 31
0.0
  0
LINE
  5
2E5
330
62
100
AcDbEntity
  8
CASTER_FRONT_STO
  6
CONTINUOUS
 62
     7
100
AcDbLine
 10
228.4676437788
 20
156.7640076722
 30
0.0
 11
228.4676437788
 21
160.2640076722
 31
0.0
  0
LINE
  5
2E6
330
62
100
AcDbEntity
  8
CASTER_FRONT_STO
  6
CONTINUOUS
 62
     7
100
AcDbLine
 10
228.4876603701
 20
156.7640076722
 30
0.0
 11
228.4876603701
 21
160.2640076722
 31
0.0
  0
ARC
  5
2E7
330
62
100
AcDbEntity
  8
CASTER_FRONT_STO
  6
CONTINUOUS
 62
     7
100
AcDbCircle
 10
223.8232855929
 20
153.6640076722
 30
0.0
 40
0.1500000000000001
100
AcDbArc
 50
270.0
 51
280.2742686295
  0
LINE
  5
2E8
330
62
100
AcDbEntity
  8
CASTER_FRONT_STO
  6
CONTINUOUS
 62
     7
100
AcDbLine
 10
223.5232855929
 20
163.5140076722
 30
0.0
 11
222.8172576536
 21
163.5140076722
 31
0.0
  0
LINE
  5
2E9
330
62
100
AcDbEntity
  8
CASTER_FRONT_STO
  6
CONTINUOUS
 62
     7
100
AcDbLine
 10
222.8172576536
 20
153.5140076722
 30
0.0
 11
223.8232855929
 21
153.5140076722
 31
0.0
  0
ARC
  5
2EA
330
62
100
AcDbEntity
  8
CASTER_FRONT_STO
  6
CONTINUOUS
 62
     7
100
AcDbCircle
 10
222.8172576536
 20
163.0640076722
 30
0.0
 40
0.4500000000000004
100
AcDbArc
 50
90.0
 51
173.8614524269
  0
ARC
  5
2EB
330
62
100
AcDbEntity
  8
CASTER_FRONT_STO
  6
CONTINUOUS
 62
     7
100
AcDbCircle
 10
222.8172576536
 20
153.9640076722
 30
0.0
 40
0.4499999999999988
100
AcDbArc
 50
186.1385475731
 51
270.0
  0
ARC
  5
2EC
330
62
100
AcDbEntity
  8
CASTER_FRONT_STO
  6
CONTINUOUS
 62
     7
100
AcDbCircle
 10
265.1232855929
 20
158.5140076722
 30
0.0
 40
43.00000000000001
100
AcDbArc
 50
185.6052688132
 51
186.1385475731
  0
ARC
  5
2ED
330
62
100
AcDbEntity
  8
CASTER_FRONT_STO
  6
CONTINUOUS
 62
     7
100
AcDbCircle
 10
265.1232855929
 20
158.5140076722
 30
0.0
 40
43.00000000000001
100
AcDbArc
 50
173.8614524269
 51
174.3947311868
  0
ARC
  5
2EE
330
62
100
AcDbEntity
  8
CASTER_FRONT_STO
  6
CONTINUOUS
 62
     7
100
AcDbCircle
 10
265.1232855929
 20
158.5140076722
 30
0.0
 40
42.98000000000001
100
AcDbArc
 50
184.7433623302
 51
185.3267093737
  0
ARC
  5
2EF
330
62
100
AcDbEntity
  8
CASTER_FRONT_STO
  6
CONTINUOUS
 62
     7
100
AcDbCircle
 10
265.1232855929
 20
158.5140076722
 30
0.0
 40
42.98
100
AcDbArc
 50
174.6732906263
 51
175.2566376698
  0
LINE
  5
2F0
330
62
100
AcDbEntity
  8
CASTER_FRONT_STO
  6
CONTINUOUS
 62
     7
100
AcDbLine
 10
222.2903170189
 20
161.1140076722
 30
0.0
 11
222.2690862654
 21
161.1140076722
 31
0.0
  0
LINE
  5
2F1
330
62
100
AcDbEntity
  8
CASTER_FRONT_STO
  6
CONTINUOUS
 62
     7
100
AcDbLine
 10
222.2690862654
 20
155.9140076722
 30
0.0
 11
222.2903170189
 21
155.9140076722
 31
0.0
  0
ARC
  5
2F2
330
62
100
AcDbEntity
  8
CASTER_FRONT_STO
  6
CONTINUOUS
 62
     7
100
AcDbCircle
 10
265.1232855929
 20
158.5140076722
 30
0.0
 40
42.98000000000001
100
AcDbArc
 50
182.3335351207
 51
183.4053177191
  0
ARC
  5
2F3
330
62
100
AcDbEntity
  8
CASTER_FRONT_STO
  6
CONTINUOUS
 62
     7
100
AcDbCircle
 10
265.1232855929
 20
158.5140076722
 30
0.0
 40
42.98000000000001
100
AcDbArc
 50
176.5946822809
 51
177.6664648793
  0
LINE
  5
2F4
330
62
100
AcDbEntity
  8
CASTER_FRONT_STO
  6
CONTINUOUS
 62
     7
100
AcDbLine
 10
222.178927407
 20
160.2640076722
 30
0.0
 11
222.1589108156
 21
160.2640076722
 31
0.0
  0
LINE
  5
2F5
330
62
100
AcDbEntity
  8
CASTER_FRONT_STO
  6
CONTINUOUS
 62
     7
100
AcDbLine
 10
222.1589108156
 20
156.7640076722
 30
0.0
 11
222.178927407
 21
156.7640076722
 31
0.0
  0
ARC
  5
2F6
330
62
100
AcDbEntity
  8
CASTER_FRONT_STO
  6
CONTINUOUS
 62
     7
100
AcDbCircle
 10
265.1232855929
 20
158.5140076722
 30
0.0
 40
43.0
100
AcDbArc
 50
177.6675508445
 51
182.3324491555
  0
ARC
  5
2F7
330
62
100
AcDbEntity
  8
CASTER_FRONT_STO
  6
CONTINUOUS
 62
     7
100
AcDbCircle
 10
222.2690862654
 20
161.0640076722
 30
0.0
 40
0.0500000000000001
100
AcDbArc
 50
90.0
 51
176.5946822809
  0
ARC
  5
2F8
330
62
100
AcDbEntity
  8
CASTER_FRONT_STO
  6
CONTINUOUS
 62
     7
100
AcDbCircle
 10
222.2690862654
 20
155.9640076722
 30
0.0
 40
0.0499999999999968
100
AcDbArc
 50
183.4053177191
 51
270.0
  0
ARC
  5
2F9
330
62
100
AcDbEntity
  8
CASTER_FRONT_STO
  6
CONTINUOUS
 62
     7
100
AcDbCircle
 10
222.3403170189
 20
162.0640076722
 30
0.0
 40
0.0500000000000028
100
AcDbArc
 50
175.2566376697
 51
180.0
  0
ARC
  5
2FA
330
62
100
AcDbEntity
  8
CASTER_FRONT_STO
  6
CONTINUOUS
 62
     7
100
AcDbCircle
 10
222.3403170189
 20
154.9640076722
 30
0.0
 40
0.0500000000000001
100
AcDbArc
 50
180.0
 51
184.7433623302
  0
LINE
  5
2FB
330
62
100
AcDbEntity
  8
CASTER_FRONT_STO
  6
CONTINUOUS
 62
     7
100
AcDbLine
 10
222.2903170189
 20
162.0640076722
 30
0.0
 11
222.2903170189
 21
154.9640076722
 31
0.0
  0
ARC
  5
2FC
330
62
100
AcDbEntity
  8
CASTER_FRONT_STO
  6
CONTINUOUS
 62
     7
100
AcDbCircle
 10
226.8232855929
 20
153.6640076722
 30
0.0
 40
0.1500000000000002
100
AcDbArc
 50
259.7257313705
 51
270.0
  0
LINE
  5
2FD
330
62
100
AcDbEntity
  8
CASTER_FRONT_STO
  6
CONTINUOUS
 62
     7
100
AcDbLine
 10
226.8232855929
 20
153.5140076722
 30
0.0
 11
227.8293135322
 21
153.5140076722
 31
0.0
  0
LINE
  5
2FE
330
62
100
AcDbEntity
  8
CASTER_FRONT_STO
  6
CONTINUOUS
 62
     7
100
AcDbLine
 10
227.8293135322
 20
163.5140076722
 30
0.0
 11
226.8232855929
 21
163.5140076722
 31
0.0
  0
ARC
  5
2FF
330
62
100
AcDbEntity
  8
CASTER_FRONT_STO
  6
CONTINUOUS
 62
     7
100
AcDbCircle
 10
227.8293135322
 20
153.9640076722
 30
0.0
 40
0.4500000000000002
100
AcDbArc
 50
270.0
 51
353.8614524269
  0
ARC
  5
300
330
62
100
AcDbEntity
  8
CASTER_FRONT_STO
  6
CONTINUOUS
 62
     7
100
AcDbCircle
 10
227.8293135322
 20
163.0640076722
 30
0.0
 40
0.4499999999999988
100
AcDbArc
 50
6.1385475731
 51
90.0
  0
ARC
  5
301
330
62
100
AcDbEntity
  8
CASTER_FRONT_STO
  6
CONTINUOUS
 62
     7
100
AcDbCircle
 10
185.5232855929
 20
158.5140076722
 30
0.0
 40
43.00000000000001
100
AcDbArc
 50
353.8614524269
 51
354.3947311868
  0
ARC
  5
302
330
62
100
AcDbEntity
  8
CASTER_FRONT_STO
  6
CONTINUOUS
 62
     7
100
AcDbCircle
 10
185.5232855929
 20
158.5140076722
 30
0.0
 40
43.00000000000001
100
AcDbArc
 50
5.6052688132
 51
6.1385475731
  0
ARC
  5
303
330
62
100
AcDbEntity
  8
CASTER_FRONT_STO
  6
CONTINUOUS
 62
     7
100
AcDbCircle
 10
185.5232855929
 20
158.5140076722
 30
0.0
 40
42.98000000000001
100
AcDbArc
 50
354.6732906263
 51
355.2566376698
  0
ARC
  5
304
330
62
100
AcDbEntity
  8
CASTER_FRONT_STO
  6
CONTINUOUS
 62
     7
100
AcDbCircle
 10
185.5232855929
 20
158.5140076722
 30
0.0
 40
42.98000000000001
100
AcDbArc
 50
4.7433623302
 51
5.3267093737
  0
LINE
  5
305
330
62
100
AcDbEntity
  8
CASTER_FRONT_STO
  6
CONTINUOUS
 62
     7
100
AcDbLine
 10
228.3562541668
 20
155.9140076722
 30
0.0
 11
228.3774849204
 21
155.9140076722
 31
0.0
  0
LINE
  5
306
330
62
100
AcDbEntity
  8
CASTER_FRONT_STO
  6
CONTINUOUS
 62
     7
100
AcDbLine
 10
228.3774849204
 20
161.1140076722
 30
0.0
 11
228.3562541668
 21
161.1140076722
 31
0.0
  0
ARC
  5
307
330
62
100
AcDbEntity
  8
CASTER_FRONT_STO
  6
CONTINUOUS
 62
     7
100
AcDbCircle
 10
185.5232855929
 20
158.5140076722
 30
0.0
 40
42.98000000000001
100
AcDbArc
 50
356.5946822809
 51
357.6664648793
  0
ARC
  5
308
330
62
100
AcDbEntity
  8
CASTER_FRONT_STO
  6
CONTINUOUS
 62
     7
100
AcDbCircle
 10
185.5232855929
 20
158.5140076722
 30
0.0
 40
42.98000000000001
100
AcDbArc
 50
2.3335351207
 51
3.4053177191
  0
LINE
  5
309
330
62
100
AcDbEntity
  8
CASTER_FRONT_STO
  6
CONTINUOUS
 62
     7
100
AcDbLine
 10
228.4676437788
 20
156.7640076722
 30
0.0
 11
228.4876603701
 21
156.7640076722
 31
0.0
  0
LINE
  5
30A
330
62
100
AcDbEntity
  8
CASTER_FRONT_STO
  6
CONTINUOUS
 62
     7
100
AcDbLine
 10
228.4876603701
 20
160.2640076722
 30
0.0
 11
228.4676437788
 21
160.2640076722
 31
0.0
  0
ARC
  5
30B
330
62
100
AcDbEntity
  8
CASTER_FRONT_STO
  6
CONTINUOUS
 62
     7
100
AcDbCircle
 10
185.5232855929
 20
158.5140076722
 30
0.0
 40
43.00000000000001
100
AcDbArc
 50
357.6675508445
 51
0.0
  0
ARC
  5
30C
330
62
100
AcDbEntity
  8
CASTER_FRONT_STO
  6
CONTINUOUS
 62
     7
100
AcDbCircle
 10
185.5232855929
 20
158.5140076722
 30
0.0
 40
43.0
100
AcDbArc
 50
0.0
 51
2.3324491555
  0
ARC
  5
30D
330
62
100
AcDbEntity
  8
CASTER_FRONT_STO
  6
CONTINUOUS
 62
     7
100
AcDbCircle
 10
228.3774849204
 20
155.9640076722
 30
0.0
 40
0.0500000000000001
100
AcDbArc
 50
270.0
 51
356.5946822809
  0
ARC
  5
30E
330
62
100
AcDbEntity
  8
CASTER_FRONT_STO
  6
CONTINUOUS
 62
     7
100
AcDbCircle
 10
228.3774849204
 20
161.0640076722
 30
0.0
 40
0.0499999999999967
100
AcDbArc
 50
3.4053177192
 51
90.0
  0
ARC
  5
30F
330
62
100
AcDbEntity
  8
CASTER_FRONT_STO
  6
CONTINUOUS
 62
     7
100
AcDbCircle
 10
228.3062541668
 20
154.9640076722
 30
0.0
 40
0.0499999999999974
100
AcDbArc
 50
355.2566376698
 51
0.0
  0
ARC
  5
310
330
62
100
AcDbEntity
  8
CASTER_FRONT_STO
  6
CONTINUOUS
 62
     7
100
AcDbCircle
 10
228.3062541668
 20
162.0640076722
 30
0.0
 40
0.0500000000000001
100
AcDbArc
 50
0.0
 51
4.7433623303
  0
LINE
  5
311
330
62
100
AcDbEntity
  8
CASTER_FRONT_STO
  6
CONTINUOUS
 62
     7
100
AcDbLine
 10
228.3562541668
 20
154.9640076722
 30
0.0
 11
228.3562541668
 21
162.0640076722
 31
0.0
  0
LINE
  5
313
330
62
100
AcDbEntity
  8
DV1_ﾃﾞﾌｫﾙﾄ
  6
CONTINUOUS
 62
     7
100
AcDbLine
 10
114.0632855929
 20
239.1490076722
 30
0.0
 11
262.5832855929
 21
239.1490076722
 31
0.0
  0
LINE
  5
314
330
62
100
AcDbEntity
  8
DV1_ﾃﾞﾌｫﾙﾄ
  6
CONTINUOUS
 62
     7
100
AcDbLine
 10
265.5832855929
 20
242.1490076722
 30
0.0
 11
265.5832855929
 21
324.8790076722
 31
0.0
  0
LINE
  5
315
330
62
100
AcDbEntity
  8
DV1_ﾃﾞﾌｫﾙﾄ
  6
CONTINUOUS
 62
     7
100
AcDbLine
 10
262.5832855929
 20
327.8790076722
 30
0.0
 11
114.0632855929
 21
327.8790076722
 31
0.0
  0
LINE
  5
316
330
62
100
AcDbEntity
  8
DV1_ﾃﾞﾌｫﾙﾄ
  6
CONTINUOUS
 62
     7
100
AcDbLine
 10
111.0632855929
 20
324.8790076722
 30
0.0
 11
111.0632855929
 21
242.1490076722
 31
0.0
  0
ARC
  5
317
330
62
100
AcDbEntity
  8
DV1_ﾃﾞﾌｫﾙﾄ
  6
CONTINUOUS
 62
     7
100
AcDbCircle
 10
114.0632855929
 20
324.8790076722
 30
0.0
 40
3.0
100
AcDbArc
 50
90.0
 51
180.0
  0
ARC
  5
318
330
62
100
AcDbEntity
  8
DV1_ﾃﾞﾌｫﾙﾄ
  6
CONTINUOUS
 62
     7
100
AcDbCircle
 10
114.0632855929
 20
242.1490076722
 30
0.0
 40
3.0
100
AcDbArc
 50
180.0
 51
270.0
  0
ARC
  5
319
330
62
100
AcDbEntity
  8
DV1_ﾃﾞﾌｫﾙﾄ
  6
CONTINUOUS
 62
     7
100
AcDbCircle
 10
262.5832855929
 20
242.1490076722
 30
0.0
 40
3.0
100
AcDbArc
 50
270.0
 51
0.0
  0
ARC
  5
31A
330
62
100
AcDbEntity
  8
DV1_ﾃﾞﾌｫﾙﾄ
  6
CONTINUOUS
 62
     7
100
AcDbCircle
 10
262.5832855929
 20
324.8790076722
 30
0.0
 40
3.0
100
AcDbArc
 50
0.0
 51
90.0
  0
LINE
  5
31B
330
62
100
AcDbEntity
  8
DV1_ﾃﾞﾌｫﾙﾄ
  6
CONTINUOUS
 62
     7
100
AcDbLine
 10
116.0632855929
 20
242.3490076722
 30
0.0
 11
260.5832855929
 21
242.3490076722
 31
0.0
  0
LINE
  5
31C
330
62
100
AcDbEntity
  8
DV1_ﾃﾞﾌｫﾙﾄ
  6
CONTINUOUS
 62
     7
100
AcDbLine
 10
260.5832855929
 20
242.3490076722
 30
0.0
 11
260.5832855929
 21
324.6790076722
 31
0.0
  0
LINE
  5
31D
330
62
100
AcDbEntity
  8
DV1_ﾃﾞﾌｫﾙﾄ
  6
CONTINUOUS
 62
     7
100
AcDbLine
 10
260.5832855929
 20
324.6790076722
 30
0.0
 11
116.0632855929
 21
324.6790076722
 31
0.0
  0
LINE
  5
31E
330
62
100
AcDbEntity
  8
DV1_ﾃﾞﾌｫﾙﾄ
  6
CONTINUOUS
 62
     7
100
AcDbLine
 10
116.0632855929
 20
324.6790076722
 30
0.0
 11
116.0632855929
 21
242.3490076722
 31
0.0
  0
LINE
  5
320
330
62
100
AcDbEntity
  8
DV1_AUTO_-_HIDE
  6
CONTINUOUS
 62
     7
100
AcDbLine
 10
114.0632855929
 20
324.8790076722
 30
0.0
 11
103.6231712596
 21
337.3986748591
 31
0.0
  0
POLYLINE
  5
321
330
62
100
AcDbEntity
  8
DV1_AUTO_-_HIDE
  6
CONTINUOUS
 62
     7
100
AcDb2dPolyline
 66
     1
 10
0.0
 20
0.0
 30
0.0
  0
VERTEX
  5
5D7
330
321
100
AcDbEntity
  8
DV1_AUTO_-_HIDE
  6
CONTINUOUS
 62
     7
100
AcDbVertex
100
AcDb2dVertex
 10
111.9779855772
 20
327.4629519896
 30
0.0
  0
VERTEX
  5
5D8
330
321
100
AcDbEntity
  8
DV1_AUTO_-_HIDE
  6
CONTINUOUS
 62
     7
100
AcDbVertex
100
AcDb2dVertex
 10
112.1419658983
 20
327.1830325486
 30
0.0
  0
VERTEX
  5
5D9
330
321
100
AcDbEntity
  8
DV1_AUTO_-_HIDE
  6
CONTINUOUS
 62
     7
100
AcDbVertex
100
AcDb2dVertex
 10
111.8960646948
 20
327.3946384021
 30
0.0
  0
SEQEND
  5
5DA
330
321
100
AcDbEntity
  8
DV1_AUTO_-_HIDE
  6
CONTINUOUS
 62
     7
  0
LINE
  5
322
330
62
100
AcDbEntity
  8
DV1_AUTO_-_HIDE
  6
CONTINUOUS
 62
     7
100
AcDbLine
 10
103.6231712596
 20
337.3986748591
 30
0.0
 11
102.6061857277
 21
337.3986748591
 31
0.0
  0
TEXT
  5
323
330
62
100
AcDbEntity
  8
DV1_AUTO_-_HIDE
  6
CONTINUOUS
 62
     7
100
AcDbText
 10
102.7181856499
 20
337.4786748591
 30
0.0
 40
0.32
  1
R
  7
SEACAD_SEANSI_TTF
 11
102.7181856499
 21
337.7986748591
 31
0.0
100
AcDbText
 73
     3
  0
TEXT
  5
324
330
62
100
AcDbEntity
  8
DV1_AUTO_-_HIDE
  6
CONTINUOUS
 62
     7
100
AcDbText
 10
103.0428685767
 20
337.4786748591
 30
0.0
 40
0.32
  1
30
  7
SEACAD_SEANSI_TTF
 11
103.0428685767
 21
337.7986748591
 31
0.0
100
AcDbText
 73
     3
  0
POLYLINE
  5
325
330
62
100
AcDbEntity
  8
DV1_AUTO_-_HIDE
  6
CONTINUOUS
 62
     7
100
AcDb2dPolyline
 66
     1
 10
0.0
 20
0.0
 30
0.0
  0
VERTEX
  5
5DB
330
325
100
AcDbEntity
  8
DV1_AUTO_-_HIDE
  6
CONTINUOUS
 62
     7
100
AcDbVertex
100
AcDb2dVertex
 10
111.3832855848
 20
353.7527144403
 30
0.0
  0
VERTEX
  5
5DC
330
325
100
AcDbEntity
  8
DV1_AUTO_-_HIDE
  6
CONTINUOUS
 62
     7
100
AcDbVertex
100
AcDb2dVertex
 10
111.0632855929
 20
353.8060477723
 30
0.0
  0
VERTEX
  5
5DD
330
325
100
AcDbEntity
  8
DV1_AUTO_-_HIDE
  6
CONTINUOUS
 62
     7
100
AcDbVertex
100
AcDb2dVertex
 10
111.3832855848
 20
353.8593811043
 30
0.0
  0
SEQEND
  5
5DE
330
325
100
AcDbEntity
  8
DV1_AUTO_-_HIDE
  6
CONTINUOUS
 62
     7
  0
POLYLINE
  5
326
330
62
100
AcDbEntity
  8
DV1_AUTO_-_HIDE
  6
CONTINUOUS
 62
     7
100
AcDb2dPolyline
 66
     1
 10
0.0
 20
0.0
 30
0.0
  0
VERTEX
  5
5DF
330
326
100
AcDbEntity
  8
DV1_AUTO_-_HIDE
  6
CONTINUOUS
 62
     7
100
AcDbVertex
100
AcDb2dVertex
 10
265.2632846282
 20
353.7527144403
 30
0.0
  0
VERTEX
  5
5E0
330
326
100
AcDbEntity
  8
DV1_AUTO_-_HIDE
  6
CONTINUOUS
 62
     7
100
AcDbVertex
100
AcDb2dVertex
 10
265.5832846201
 20
353.8060477723
 30
0.0
  0
VERTEX
  5
5E1
330
326
100
AcDbEntity
  8
DV1_AUTO_-_HIDE
  6
CONTINUOUS
 62
     7
100
AcDbVertex
100
AcDb2dVertex
 10
265.2632846282
 20
353.8593811043
 30
0.0
  0
SEQEND
  5
5E2
330
326
100
AcDbEntity
  8
DV1_AUTO_-_HIDE
  6
CONTINUOUS
 62
     7
  0
LINE
  5
327
330
62
100
AcDbEntity
  8
DV1_AUTO_-_HIDE
  6
CONTINUOUS
 62
     7
100
AcDbLine
 10
111.0632855929
 20
325.0070076689
 30
0.0
 11
111.0632855929
 21
353.9660477682
 31
0.0
  0
LINE
  5
328
330
62
100
AcDbEntity
  8
DV1_AUTO_-_HIDE
  6
CONTINUOUS
 62
     7
100
AcDbLine
 10
265.5832855929
 20
325.0070076689
 30
0.0
 11
265.5832855929
 21
353.9660477682
 31
0.0
  0
LINE
  5
329
330
62
100
AcDbEntity
  8
DV1_AUTO_-_HIDE
  6
CONTINUOUS
 62
     7
100
AcDbLine
 10
111.0632855929
 20
353.8060477723
 30
0.0
 11
265.5832846201
 21
353.8060477723
 31
0.0
  0
TEXT
  5
32A
330
62
100
AcDbEntity
  8
DV1_AUTO_-_HIDE
  6
CONTINUOUS
 62
     7
100
AcDbText
 10
187.6891387651
 20
353.8860477723
 30
0.0
 40
0.32
  1
1545.2
  7
SEACAD_SEANSI_TTF
 11
187.6891387651
 21
354.2060477723
 31
0.0
100
AcDbText
 73
     3
  0
POLYLINE
  5
32B
330
62
100
AcDbEntity
  8
DV1_AUTO_-_HIDE
  6
CONTINUOUS
 62
     7
100
AcDb2dPolyline
 66
     1
 10
0.0
 20
0.0
 30
0.0
  0
VERTEX
  5
5E3
330
32B
100
AcDbEntity
  8
DV1_AUTO_-_HIDE
  6
CONTINUOUS
 62
     7
100
AcDbVertex
100
AcDb2dVertex
 10
104.2320834036
 20
327.5590076803
 30
0.0
  0
VERTEX
  5
5E4
330
32B
100
AcDbEntity
  8
DV1_AUTO_-_HIDE
  6
CONTINUOUS
 62
     7
100
AcDbVertex
100
AcDb2dVertex
 10
104.1787500716
 20
327.8790076722
 30
0.0
  0
VERTEX
  5
5E5
330
32B
100
AcDbEntity
  8
DV1_AUTO_-_HIDE
  6
CONTINUOUS
 62
     7
100
AcDbVertex
100
AcDb2dVertex
 10
104.1254167396
 20
327.5590076803
 30
0.0
  0
SEQEND
  5
5E6
330
32B
100
AcDbEntity
  8
DV1_AUTO_-_HIDE
  6
CONTINUOUS
 62
     7
  0
POLYLINE
  5
32C
330
62
100
AcDbEntity
  8
DV1_AUTO_-_HIDE
  6
CONTINUOUS
 62
     7
100
AcDb2dPolyline
 66
     1
 10
0.0
 20
0.0
 30
0.0
  0
VERTEX
  5
5E7
330
32C
100
AcDbEntity
  8
DV1_AUTO_-_HIDE
  6
CONTINUOUS
 62
     7
100
AcDbVertex
100
AcDb2dVertex
 10
104.2320834036
 20
239.4690062145
 30
0.0
  0
VERTEX
  5
5E8
330
32C
100
AcDbEntity
  8
DV1_AUTO_-_HIDE
  6
CONTINUOUS
 62
     7
100
AcDbVertex
100
AcDb2dVertex
 10
104.1787500716
 20
239.1490062226
 30
0.0
  0
VERTEX
  5
5E9
330
32C
100
AcDbEntity
  8
DV1_AUTO_-_HIDE
  6
CONTINUOUS
 62
     7
100
AcDbVertex
100
AcDb2dVertex
 10
104.1254167396
 20
239.4690062145
 30
0.0
  0
SEQEND
  5
5EA
330
32C
100
AcDbEntity
  8
DV1_AUTO_-_HIDE
  6
CONTINUOUS
 62
     7
  0
LINE
  5
32D
330
62
100
AcDbEntity
  8
DV1_AUTO_-_HIDE
  6
CONTINUOUS
 62
     7
100
AcDbLine
 10
113.9352855961
 20
327.8790076722
 30
0.0
 11
104.0187500757
 21
327.8790076722
 31
0.0
  0
LINE
  5
32E
330
62
100
AcDbEntity
  8
DV1_AUTO_-_HIDE
  6
CONTINUOUS
 62
     7
100
AcDbLine
 10
113.9352855961
 20
239.1490076722
 30
0.0
 11
104.0187500757
 21
239.1490076722
 31
0.0
  0
LINE
  5
32F
330
62
100
AcDbEntity
  8
DV1_AUTO_-_HIDE
  6
CONTINUOUS
 62
     7
100
AcDbLine
 10
104.1787500716
 20
327.8790076722
 30
0.0
 11
104.1787500716
 21
239.1490062226
 31
0.0
  0
TEXT
  5
330
330
62
100
AcDbEntity
  8
DV1_AUTO_-_HIDE
  6
CONTINUOUS
 62
     7
100
AcDbText
 10
104.0987500716
 20
282.9969337766
 30
0.0
 40
0.32
  1
887.3
 50
90.0
  7
SEACAD_SEANSI_TTF
 11
103.7787500716
 21
282.9969337766
 31
0.0
100
AcDbText
 73
     3
  0
POLYLINE
  5
331
330
62
100
AcDbEntity
  8
DV1_AUTO_-_HIDE
  6
CONTINUOUS
 62
     7
100
AcDb2dPolyline
 66
     1
 10
0.0
 20
0.0
 30
0.0
  0
VERTEX
  5
5EB
330
331
100
AcDbEntity
  8
DV1_AUTO_-_HIDE
  6
CONTINUOUS
 62
     7
100
AcDbVertex
100
AcDb2dVertex
 10
260.9032855848
 20
337.5721921057
 30
0.0
  0
VERTEX
  5
5EC
330
331
100
AcDbEntity
  8
DV1_AUTO_-_HIDE
  6
CONTINUOUS
 62
     7
100
AcDbVertex
100
AcDb2dVertex
 10
260.5832855929
 20
337.6255254377
 30
0.0
  0
VERTEX
  5
5ED
330
331
100
AcDbEntity
  8
DV1_AUTO_-_HIDE
  6
CONTINUOUS
 62
     7
100
AcDbVertex
100
AcDb2dVertex
 10
260.9032855848
 20
337.6788587697
 30
0.0
  0
SEQEND
  5
5EE
330
331
100
AcDbEntity
  8
DV1_AUTO_-_HIDE
  6
CONTINUOUS
 62
     7
  0
POLYLINE
  5
332
330
62
100
AcDbEntity
  8
DV1_AUTO_-_HIDE
  6
CONTINUOUS
 62
     7
100
AcDb2dPolyline
 66
     1
 10
0.0
 20
0.0
 30
0.0
  0
VERTEX
  5
5EF
330
332
100
AcDbEntity
  8
DV1_AUTO_-_HIDE
  6
CONTINUOUS
 62
     7
100
AcDbVertex
100
AcDb2dVertex
 10
265.2632856755
 20
337.5721921057
 30
0.0
  0
VERTEX
  5
5F0
330
332
100
AcDbEntity
  8
DV1_AUTO_-_HIDE
  6
CONTINUOUS
 62
     7
100
AcDbVertex
100
AcDb2dVertex
 10
265.5832856674
 20
337.6255254377
 30
0.0
  0
VERTEX
  5
5F1
330
332
100
AcDbEntity
  8
DV1_AUTO_-_HIDE
  6
CONTINUOUS
 62
     7
100
AcDbVertex
100
AcDb2dVertex
 10
265.2632856755
 20
337.6788587697
 30
0.0
  0
SEQEND
  5
5F2
330
332
100
AcDbEntity
  8
DV1_AUTO_-_HIDE
  6
CONTINUOUS
 62
     7
  0
LINE
  5
333
330
62
100
AcDbEntity
  8
DV1_AUTO_-_HIDE
  6
CONTINUOUS
 62
     7
100
AcDbLine
 10
260.5832855929
 20
324.8070076689
 30
0.0
 11
260.5832855929
 21
337.7855254336
 31
0.0
  0
LINE
  5
334
330
62
100
AcDbEntity
  8
DV1_AUTO_-_HIDE
  6
CONTINUOUS
 62
     7
100
AcDbLine
 10
265.5832855929
 20
325.007009858
 30
0.0
 11
265.5832855929
 21
337.7855254336
 31
0.0
  0
LINE
  5
335
330
62
100
AcDbEntity
  8
DV1_AUTO_-_HIDE
  6
CONTINUOUS
 62
     7
100
AcDbLine
 10
260.5832855929
 20
337.6255254377
 30
0.0
 11
265.5832856674
 21
337.6255254377
 31
0.0
  0
TEXT
  5
336
330
62
100
AcDbEntity
  8
DV1_AUTO_-_HIDE
  6
CONTINUOUS
 62
     7
100
AcDbText
 10
262.8491392887
 20
337.7055254377
 30
0.0
 40
0.32
  1
50
  7
SEACAD_SEANSI_TTF
 11
262.8491392887
 21
338.0255254377
 31
0.0
100
AcDbText
 73
     3
  0
LINE
  5
337
330
62
100
AcDbEntity
  8
DV1_AUTO_-_HIDE
  6
CONTINUOUS
 62
     7
100
AcDbLine
 10
260.7112855897
 20
324.6790076722
 30
0.0
 11
299.7073527275
 21
324.6790076722
 31
0.0
  0
LINE
  5
338
330
62
100
AcDbEntity
  8
DV1_AUTO_-_HIDE
  6
CONTINUOUS
 62
     7
100
AcDbLine
 10
262.7112855897
 20
327.8790076722
 30
0.0
 11
299.7073527275
 21
327.8790076722
 31
0.0
  0
POLYLINE
  5
339
330
62
100
AcDbEntity
  8
DV1_AUTO_-_HIDE
  6
CONTINUOUS
 62
     7
100
AcDb2dPolyline
 66
     1
 10
0.0
 20
0.0
 30
0.0
  0
VERTEX
  5
5F3
330
339
100
AcDbEntity
  8
DV1_AUTO_-_HIDE
  6
CONTINUOUS
 62
     7
100
AcDbVertex
100
AcDb2dVertex
 10
293.7798222036
 20
242.0290076803
 30
0.0
  0
VERTEX
  5
5F4
330
339
100
AcDbEntity
  8
DV1_AUTO_-_HIDE
  6
CONTINUOUS
 62
     7
100
AcDbVertex
100
AcDb2dVertex
 10
293.8331555356
 20
242.3490076722
 30
0.0
  0
VERTEX
  5
5F5
330
339
100
AcDbEntity
  8
DV1_AUTO_-_HIDE
  6
CONTINUOUS
 62
     7
100
AcDbVertex
100
AcDb2dVertex
 10
293.8864888675
 20
242.0290076803
 30
0.0
  0
SEQEND
  5
5F6
330
339
100
AcDbEntity
  8
DV1_AUTO_-_HIDE
  6
CONTINUOUS
 62
     7
  0
POLYLINE
  5
33A
330
62
100
AcDbEntity
  8
DV1_AUTO_-_HIDE
  6
CONTINUOUS
 62
     7
100
AcDb2dPolyline
 66
     1
 10
0.0
 20
0.0
 30
0.0
  0
VERTEX
  5
5F7
330
33A
100
AcDbEntity
  8
DV1_AUTO_-_HIDE
  6
CONTINUOUS
 62
     7
100
AcDbVertex
100
AcDb2dVertex
 10
293.7798222036
 20
239.4690075121
 30
0.0
  0
VERTEX
  5
5F8
330
33A
100
AcDbEntity
  8
DV1_AUTO_-_HIDE
  6
CONTINUOUS
 62
     7
100
AcDbVertex
100
AcDb2dVertex
 10
293.8331555356
 20
239.1490075202
 30
0.0
  0
VERTEX
  5
5F9
330
33A
100
AcDbEntity
  8
DV1_AUTO_-_HIDE
  6
CONTINUOUS
 62
     7
100
AcDbVertex
100
AcDb2dVertex
 10
293.8864888675
 20
239.4690075121
 30
0.0
  0
SEQEND
  5
5FA
330
33A
100
AcDbEntity
  8
DV1_AUTO_-_HIDE
  6
CONTINUOUS
 62
     7
  0
LINE
  5
33B
330
62
100
AcDbEntity
  8
DV1_AUTO_-_HIDE
  6
CONTINUOUS
 62
     7
100
AcDbLine
 10
260.7112855897
 20
242.3490076722
 30
0.0
 11
293.9931555315
 21
242.3490076722
 31
0.0
  0
LINE
  5
33C
330
62
100
AcDbEntity
  8
DV1_AUTO_-_HIDE
  6
CONTINUOUS
 62
     7
100
AcDbLine
 10
262.7112855897
 20
239.1490076722
 30
0.0
 11
293.9931555315
 21
239.1490076722
 31
0.0
  0
LINE
  5
33D
330
62
100
AcDbEntity
  8
DV1_AUTO_-_HIDE
  6
CONTINUOUS
 62
     7
100
AcDbLine
 10
293.8331555356
 20
242.3490076722
 30
0.0
 11
293.8331555356
 21
239.1490075202
 31
0.0
  0
TEXT
  5
33E
330
62
100
AcDbEntity
  8
DV1_AUTO_-_HIDE
  6
CONTINUOUS
 62
     7
100
AcDbText
 10
293.7531555356
 20
240.5148612547
 30
0.0
 40
0.32
  1
32
 50
90.0
  7
SEACAD_SEANSI_TTF
 11
293.4331555356
 21
240.5148612547
 31
0.0
100
AcDbText
 73
     3
  0
POLYLINE
  5
33F
330
62
100
AcDbEntity
  8
DV1_AUTO_-_HIDE
  6
CONTINUOUS
 62
     7
100
AcDb2dPolyline
 66
     1
 10
0.0
 20
0.0
 30
0.0
  0
VERTEX
  5
5FB
330
33F
100
AcDbEntity
  8
DV1_AUTO_-_HIDE
  6
CONTINUOUS
 62
     7
100
AcDbVertex
100
AcDb2dVertex
 10
111.3832855848
 20
346.3744414491
 30
0.0
  0
VERTEX
  5
5FC
330
33F
100
AcDbEntity
  8
DV1_AUTO_-_HIDE
  6
CONTINUOUS
 62
     7
100
AcDbVertex
100
AcDb2dVertex
 10
111.0632855929
 20
346.4277747811
 30
0.0
  0
VERTEX
  5
5FD
330
33F
100
AcDbEntity
  8
DV1_AUTO_-_HIDE
  6
CONTINUOUS
 62
     7
100
AcDbVertex
100
AcDb2dVertex
 10
111.3832855848
 20
346.4811081131
 30
0.0
  0
SEQEND
  5
5FE
330
33F
100
AcDbEntity
  8
DV1_AUTO_-_HIDE
  6
CONTINUOUS
 62
     7
  0
POLYLINE
  5
340
330
62
100
AcDbEntity
  8
DV1_AUTO_-_HIDE
  6
CONTINUOUS
 62
     7
100
AcDb2dPolyline
 66
     1
 10
0.0
 20
0.0
 30
0.0
  0
VERTEX
  5
5FF
330
340
100
AcDbEntity
  8
DV1_AUTO_-_HIDE
  6
CONTINUOUS
 62
     7
100
AcDbVertex
100
AcDb2dVertex
 10
115.7432856755
 20
346.3744414491
 30
0.0
  0
VERTEX
  5
600
330
340
100
AcDbEntity
  8
DV1_AUTO_-_HIDE
  6
CONTINUOUS
 62
     7
100
AcDbVertex
100
AcDb2dVertex
 10
116.0632856674
 20
346.4277747811
 30
0.0
  0
VERTEX
  5
601
330
340
100
AcDbEntity
  8
DV1_AUTO_-_HIDE
  6
CONTINUOUS
 62
     7
100
AcDbVertex
100
AcDb2dVertex
 10
115.7432856755
 20
346.4811081131
 30
0.0
  0
SEQEND
  5
602
330
340
100
AcDbEntity
  8
DV1_AUTO_-_HIDE
  6
CONTINUOUS
 62
     7
  0
LINE
  5
341
330
62
100
AcDbEntity
  8
DV1_AUTO_-_HIDE
  6
CONTINUOUS
 62
     7
100
AcDbLine
 10
111.0632855929
 20
325.007009858
 30
0.0
 11
111.0632855929
 21
346.587774777
 31
0.0
  0
LINE
  5
342
330
62
100
AcDbEntity
  8
DV1_AUTO_-_HIDE
  6
CONTINUOUS
 62
     7
100
AcDbLine
 10
116.0632855929
 20
324.8070090474
 30
0.0
 11
116.0632855929
 21
346.587774777
 31
0.0
  0
LINE
  5
343
330
62
100
AcDbEntity
  8
DV1_AUTO_-_HIDE
  6
CONTINUOUS
 62
     7
100
AcDbLine
 10
97.964413885
 20
346.4277747811
 30
0.0
 11
116.0632856674
 21
346.4277747811
 31
0.0
  0
TEXT
  5
344
330
62
100
AcDbEntity
  8
DV1_AUTO_-_HIDE
  6
CONTINUOUS
 62
     7
100
AcDbText
 10
98.07641425
 20
346.5077747811
 30
0.0
 40
0.32
  1
50
  7
SEACAD_SEANSI_TTF
 11
98.07641425
 21
346.8277747811
 31
0.0
100
AcDbText
 73
     3
  0
POLYLINE
  5
345
330
62
100
AcDbEntity
  8
DV1_AUTO_-_HIDE
  6
CONTINUOUS
 62
     7
100
AcDb2dPolyline
 66
     1
 10
0.0
 20
0.0
 30
0.0
  0
VERTEX
  5
603
330
345
100
AcDbEntity
  8
DV1_AUTO_-_HIDE
  6
CONTINUOUS
 62
     7
100
AcDbVertex
100
AcDb2dVertex
 10
168.6432855848
 20
329.4171411342
 30
0.0
  0
VERTEX
  5
604
330
345
100
AcDbEntity
  8
DV1_AUTO_-_HIDE
  6
CONTINUOUS
 62
     7
100
AcDbVertex
100
AcDb2dVertex
 10
168.3232855929
 20
329.4704744662
 30
0.0
  0
VERTEX
  5
605
330
345
100
AcDbEntity
  8
DV1_AUTO_-_HIDE
  6
CONTINUOUS
 62
     7
100
AcDbVertex
100
AcDb2dVertex
 10
168.6432855848
 20
329.5238077982
 30
0.0
  0
SEQEND
  5
606
330
345
100
AcDbEntity
  8
DV1_AUTO_-_HIDE
  6
CONTINUOUS
 62
     7
  0
POLYLINE
  5
346
330
62
100
AcDbEntity
  8
DV1_AUTO_-_HIDE
  6
CONTINUOUS
 62
     7
100
AcDb2dPolyline
 66
     1
 10
0.0
 20
0.0
 30
0.0
  0
VERTEX
  5
607
330
346
100
AcDbEntity
  8
DV1_AUTO_-_HIDE
  6
CONTINUOUS
 62
     7
100
AcDbVertex
100
AcDb2dVertex
 10
188.003285899
 20
329.4171411342
 30
0.0
  0
VERTEX
  5
608
330
346
100
AcDbEntity
  8
DV1_AUTO_-_HIDE
  6
CONTINUOUS
 62
     7
100
AcDbVertex
100
AcDb2dVertex
 10
188.3232858909
 20
329.4704744662
 30
0.0
  0
VERTEX
  5
609
330
346
100
AcDbEntity
  8
DV1_AUTO_-_HIDE
  6
CONTINUOUS
 62
     7
100
AcDbVertex
100
AcDb2dVertex
 10
188.003285899
 20
329.5238077982
 30
0.0
  0
SEQEND
  5
60A
330
346
100
AcDbEntity
  8
DV1_AUTO_-_HIDE
  6
CONTINUOUS
 62
     7
  0
LINE
  5
347
330
62
100
AcDbEntity
  8
DV1_AUTO_-_HIDE
  6
CONTINUOUS
 62
     7
100
AcDbLine
 10
168.3232855929
 20
303.6420076689
 30
0.0
 11
168.3232855929
 21
329.6304744621
 31
0.0
  0
LINE
  5
348
330
62
100
AcDbEntity
  8
DV1_AUTO_-_HIDE
  6
CONTINUOUS
 62
     7
100
AcDbLine
 10
188.3232855929
 20
324.8070076689
 30
0.0
 11
188.3232855929
 21
329.6304744621
 31
0.0
  0
LINE
  5
349
330
62
100
AcDbEntity
  8
DV1_AUTO_-_HIDE
  6
CONTINUOUS
 62
     7
100
AcDbLine
 10
168.3232855929
 20
329.4704744662
 30
0.0
 11
188.3232858909
 21
329.4704744662
 31
0.0
  0
TEXT
  5
34A
330
62
100
AcDbEntity
  8
DV1_AUTO_-_HIDE
  6
CONTINUOUS
 62
     7
100
AcDbText
 10
177.9720662297
 20
329.5504744662
 30
0.0
 40
0.32
  1
200
  7
SEACAD_SEANSI_TTF
 11
177.9720662297
 21
329.8704744662
 31
0.0
100
AcDbText
 73
     3
  0
POLYLINE
  5
34B
330
62
100
AcDbEntity
  8
DV1_AUTO_-_HIDE
  6
CONTINUOUS
 62
     7
100
AcDb2dPolyline
 66
     1
 10
0.0
 20
0.0
 30
0.0
  0
VERTEX
  5
60B
330
34B
100
AcDbEntity
  8
DV1_AUTO_-_HIDE
  6
CONTINUOUS
 62
     7
100
AcDbVertex
100
AcDb2dVertex
 10
123.8055766959
 20
283.8340076641
 30
0.0
  0
VERTEX
  5
60C
330
34B
100
AcDbEntity
  8
DV1_AUTO_-_HIDE
  6
CONTINUOUS
 62
     7
100
AcDbVertex
100
AcDb2dVertex
 10
123.8589100278
 20
283.5140076722
 30
0.0
  0
VERTEX
  5
60D
330
34B
100
AcDbEntity
  8
DV1_AUTO_-_HIDE
  6
CONTINUOUS
 62
     7
100
AcDbVertex
100
AcDb2dVertex
 10
123.9122433598
 20
283.8340076641
 30
0.0
  0
SEQEND
  5
60E
330
34B
100
AcDbEntity
  8
DV1_AUTO_-_HIDE
  6
CONTINUOUS
 62
     7
  0
POLYLINE
  5
34C
330
62
100
AcDbEntity
  8
DV1_AUTO_-_HIDE
  6
CONTINUOUS
 62
     7
100
AcDb2dPolyline
 66
     1
 10
0.0
 20
0.0
 30
0.0
  0
VERTEX
  5
60F
330
34C
100
AcDbEntity
  8
DV1_AUTO_-_HIDE
  6
CONTINUOUS
 62
     7
100
AcDbVertex
100
AcDb2dVertex
 10
123.8055766959
 20
303.1940079783
 30
0.0
  0
VERTEX
  5
610
330
34C
100
AcDbEntity
  8
DV1_AUTO_-_HIDE
  6
CONTINUOUS
 62
     7
100
AcDbVertex
100
AcDb2dVertex
 10
123.8589100278
 20
303.5140079702
 30
0.0
  0
VERTEX
  5
611
330
34C
100
AcDbEntity
  8
DV1_AUTO_-_HIDE
  6
CONTINUOUS
 62
     7
100
AcDbVertex
100
AcDb2dVertex
 10
123.9122433598
 20
303.1940079783
 30
0.0
  0
SEQEND
  5
612
330
34C
100
AcDbEntity
  8
DV1_AUTO_-_HIDE
  6
CONTINUOUS
 62
     7
  0
LINE
  5
34D
330
62
100
AcDbEntity
  8
DV1_AUTO_-_HIDE
  6
CONTINUOUS
 62
     7
100
AcDbLine
 10
116.1912855897
 20
283.5140076722
 30
0.0
 11
124.0189100238
 21
283.5140076722
 31
0.0
  0
LINE
  5
34E
330
62
100
AcDbEntity
  8
DV1_AUTO_-_HIDE
  6
CONTINUOUS
 62
     7
100
AcDbLine
 10
168.1952855961
 20
303.5140076722
 30
0.0
 11
123.6989100319
 21
303.5140076722
 31
0.0
  0
LINE
  5
34F
330
62
100
AcDbEntity
  8
DV1_AUTO_-_HIDE
  6
CONTINUOUS
 62
     7
100
AcDbLine
 10
123.8589100278
 20
283.5140076722
 30
0.0
 11
123.8589100278
 21
303.5140079702
 31
0.0
  0
TEXT
  5
350
330
62
100
AcDbEntity
  8
DV1_AUTO_-_HIDE
  6
CONTINUOUS
 62
     7
100
AcDbText
 10
123.7789100278
 20
293.162788309
 30
0.0
 40
0.32
  1
200
 50
90.0
  7
SEACAD_SEANSI_TTF
 11
123.4589100278
 21
293.162788309
 31
0.0
100
AcDbText
 73
     3
  0
LINE
  5
351
330
62
100
AcDbEntity
  8
DV1_ﾃﾞﾌｫﾙﾄ
  6
CONTINUOUS
 62
     7
100
AcDbLine
 10
148.1532855929
 20
239.1490076722
 30
0.0
 11
148.1532855929
 21
164.3440076722
 31
0.0
  0
LINE
  5
352
330
62
100
AcDbEntity
  8
DV1_ﾃﾞﾌｫﾙﾄ
  6
CONTINUOUS
 62
     7
100
AcDbLine
 10
153.3532855929
 20
164.3440076722
 30
0.0
 11
153.3532855929
 21
239.1490076722
 31
0.0
  0
LINE
  5
353
330
62
100
AcDbEntity
  8
DV1_ﾃﾞﾌｫﾙﾄ
  6
CONTINUOUS
 62
     7
100
AcDbLine
 10
153.4532855929
 20
239.1490076722
 30
0.0
 11
153.4532855929
 21
165.2678872047
 31
0.0
  0
LINE
  5
354
330
62
100
AcDbEntity
  8
DV1_ﾃﾞﾌｫﾙﾄ
  6
CONTINUOUS
 62
     7
100
AcDbLine
 10
223.1932855929
 20
165.2678872047
 30
0.0
 11
223.1932855929
 21
239.1490076722
 31
0.0
  0
LINE
  5
355
330
62
100
AcDbEntity
  8
DV1_ﾃﾞﾌｫﾙﾄ
  6
CONTINUOUS
 62
     7
100
AcDbLine
 10
223.2932855929
 20
239.1490076722
 30
0.0
 11
223.2932855929
 21
164.3440076722
 31
0.0
  0
LINE
  5
356
330
62
100
AcDbEntity
  8
DV1_ﾃﾞﾌｫﾙﾄ
  6
CONTINUOUS
 62
     7
100
AcDbLine
 10
228.4932855929
 20
164.3440076722
 30
0.0
 11
228.4932855929
 21
239.1490076722
 31
0.0
  0
ENDBLK
  5
358
330
62
100
AcDbEntity
  8
0
100
AcDbBlockEnd
  0
BLOCK
  5
593
330
359
100
AcDbEntity
  8
0
100
AcDbBlockBegin
  2
SE1
 70
     0
 10
0.0
 20
0.0
 30
0.0
  3
SE1
  1

  0
LINE
  5
35C
330
359
100
AcDbEntity
  8
UKEKANAGU_001_SE
  6
CONTINUOUS
 62
     7
100
AcDbLine
 10
417.1185259261
 20
287.0140076722
 30
0.0
 11
417.1185259261
 21
288.3140076722
 31
0.0
  0
LINE
  5
35D
330
359
100
AcDbEntity
  8
UKEKANAGU_001_SE
  6
CONTINUOUS
 62
     7
100
AcDbLine
 10
417.3185259261
 20
288.3140076722
 30
0.0
 11
417.3185259261
 21
287.0140076722
 31
0.0
  0
LINE
  5
35E
330
359
100
AcDbEntity
  8
UKEKANAGU_001_SE
  6
CONTINUOUS
 62
     7
100
AcDbLine
 10
419.4185259261
 20
286.7940076722
 30
0.0
 11
419.4185259261
 21
286.8140076722
 31
0.0
  0
LINE
  5
35F
330
359
100
AcDbEntity
  8
UKEKANAGU_001_SE
  6
CONTINUOUS
 62
     7
100
AcDbLine
 10
419.3185259261
 20
287.0140076722
 30
0.0
 11
419.4185259261
 21
287.0140076722
 31
0.0
  0
LINE
  5
360
330
359
100
AcDbEntity
  8
UKEKANAGU_001_SE
  6
CONTINUOUS
 62
     7
100
AcDbLine
 10
417.3185259261
 20
287.0140076722
 30
0.0
 11
419.1185259261
 21
287.0140076722
 31
0.0
  0
LINE
  5
361
330
359
100
AcDbEntity
  8
UKEKANAGU_001_SE
  6
CONTINUOUS
 62
     7
100
AcDbLine
 10
419.1185259261
 20
286.8140076722
 30
0.0
 11
417.3185259261
 21
286.8140076722
 31
0.0
  0
LINE
  5
362
330
359
100
AcDbEntity
  8
UKEKANAGU_001_SE
  6
CONTINUOUS
 62
     7
100
AcDbLine
 10
419.4185259261
 20
286.8140076722
 30
0.0
 11
419.3185259261
 21
286.8140076722
 31
0.0
  0
LINE
  5
363
330
359
100
AcDbEntity
  8
UKEKANAGU_001_SE
  6
CONTINUOUS
 62
     7
100
AcDbLine
 10
417.3185259261
 20
286.7940076722
 30
0.0
 11
419.4185259261
 21
286.7940076722
 31
0.0
  0
LINE
  5
364
330
359
100
AcDbEntity
  8
UKEKANAGU_001_SE
  6
CONTINUOUS
 62
     7
100
AcDbLine
 10
417.3185259261
 20
260.2340076722
 30
0.0
 11
418.8057036421
 21
260.2340076722
 31
0.0
  0
LINE
  5
365
330
359
100
AcDbEntity
  8
UKEKANAGU_001_SE
  6
CONTINUOUS
 62
     7
100
AcDbLine
 10
417.1185259261
 20
286.5940076722
 30
0.0
 11
417.1185259261
 21
260.4340076722
 31
0.0
  0
LINE
  5
366
330
359
100
AcDbEntity
  8
UKEKANAGU_001_SE
  6
CONTINUOUS
 62
     7
100
AcDbLine
 10
418.7145766584
 20
260.0140076722
 30
0.0
 11
417.3185259261
 21
260.0140076722
 31
0.0
  0
LINE
  5
367
330
359
100
AcDbEntity
  8
UKEKANAGU_001_SE
  6
CONTINUOUS
 62
     7
100
AcDbLine
 10
417.3185259261
 20
260.2140076722
 30
0.0
 11
418.7974193709
 21
260.2140076722
 31
0.0
  0
ARC
  5
368
330
359
100
AcDbEntity
  8
UKEKANAGU_001_SE
  6
CONTINUOUS
 62
     7
100
AcDbCircle
 10
419.4185259261
 20
286.8140076722
 30
0.0
 40
0.2000000000000002
100
AcDbArc
 50
0.0
 51
90.0
  0
LINE
  5
369
330
359
100
AcDbEntity
  8
UKEKANAGU_001_SE
  6
CONTINUOUS
 62
     7
100
AcDbLine
 10
419.4185259261
 20
286.7940076722
 30
0.0
 11
419.6185259261
 21
286.7940076722
 31
0.0
  0
ARC
  5
36A
330
359
100
AcDbEntity
  8
UKEKANAGU_001_SE
  6
CONTINUOUS
 62
     7
100
AcDbCircle
 10
417.3185259261
 20
287.0140076722
 30
0.0
 40
0.2000000000000002
100
AcDbArc
 50
180.0
 51
270.0
  0
LINE
  5
36B
330
359
100
AcDbEntity
  8
UKEKANAGU_001_SE
  6
CONTINUOUS
 62
     7
100
AcDbLine
 10
417.1185259261
 20
260.0140076722
 30
0.0
 11
417.3185259261
 21
260.0140076722
 31
0.0
  0
LINE
  5
36C
330
359
100
AcDbEntity
  8
UKEKANAGU_001_SE
  6
CONTINUOUS
 62
     7
100
AcDbLine
 10
417.3185259261
 20
260.2140076722
 30
0.0
 11
417.1185259261
 21
260.2140076722
 31
0.0
  0
LINE
  5
36D
330
359
100
AcDbEntity
  8
UKEKANAGU_001_SE
  6
CONTINUOUS
 62
     7
100
AcDbLine
 10
417.1185259261
 20
260.2140076722
 30
0.0
 11
417.1185259261
 21
260.0140076722
 31
0.0
  0
ARC
  5
36E
330
359
100
AcDbEntity
  8
UKEKANAGU_001_SE
  6
CONTINUOUS
 62
     7
100
AcDbCircle
 10
417.3185259261
 20
260.4340076722
 30
0.0
 40
0.2000000000000002
100
AcDbArc
 50
180.0
 51
270.0
  0
LINE
  5
36F
330
359
100
AcDbEntity
  8
UKEKANAGU_001_SE
  6
CONTINUOUS
 62
     7
100
AcDbLine
 10
419.3185259261
 20
287.0140076722
 30
0.0
 11
419.1185259261
 21
287.0140076722
 31
0.0
  0
LINE
  5
370
330
359
100
AcDbEntity
  8
UKEKANAGU_001_SE
  6
CONTINUOUS
 62
     7
100
AcDbLine
 10
419.1185259261
 20
286.8140076722
 30
0.0
 11
419.3185259261
 21
286.8140076722
 31
0.0
  0
LINE
  5
371
330
359
100
AcDbEntity
  8
UKEKANAGU_001_SE
  6
CONTINUOUS
 62
     7
100
AcDbLine
 10
419.3185259261
 20
286.8140076722
 30
0.0
 11
419.3185259261
 21
287.0140076722
 31
0.0
  0
ARC
  5
372
330
359
100
AcDbEntity
  8
UKEKANAGU_001_SE
  6
CONTINUOUS
 62
     7
100
AcDbCircle
 10
417.3185259261
 20
286.5940076722
 30
0.0
 40
0.2000000000000002
100
AcDbArc
 50
90.0
 51
180.0
  0
LINE
  5
373
330
359
100
AcDbEntity
  8
UKEKANAGU_001_SE
  6
CONTINUOUS
 62
     7
100
AcDbLine
 10
417.1185259261
 20
288.8140076722
 30
0.0
 11
417.1185259261
 21
288.3140076722
 31
0.0
  0
LINE
  5
374
330
359
100
AcDbEntity
  8
UKEKANAGU_001_SE
  6
CONTINUOUS
 62
     7
100
AcDbLine
 10
417.3185259261
 20
288.3140076722
 30
0.0
 11
417.3185259261
 21
288.8140076722
 31
0.0
  0
LINE
  5
375
330
359
100
AcDbEntity
  8
UKEKANAGU_001_SE
  6
CONTINUOUS
 62
     7
100
AcDbLine
 10
417.3185259261
 20
288.8140076722
 30
0.0
 11
417.1185259261
 21
288.8140076722
 31
0.0
  0
LINE
  5
377
330
359
100
AcDbEntity
  8
KOTEI_RIGHT_001_
  6
CONTINUOUS
 62
     7
100
AcDbLine
 10
419.6185259261
 20
287.0140076722
 30
0.0
 11
419.6185259261
 21
262.196334254
 31
0.0
  0
LINE
  5
378
330
359
100
AcDbEntity
  8
KOTEI_RIGHT_001_
  6
CONTINUOUS
 62
     7
100
AcDbLine
 10
419.6185259261
 20
287.0140076722
 30
0.0
 11
419.8485259261
 21
287.0140076722
 31
0.0
  0
LINE
  5
379
330
359
100
AcDbEntity
  8
KOTEI_RIGHT_001_
  6
CONTINUOUS
 62
     7
100
AcDbLine
 10
423.2825042233
 20
287.0140076722
 30
0.0
 11
419.8485259261
 21
287.0140076722
 31
0.0
  0
LINE
  5
37A
330
359
100
AcDbEntity
  8
KOTEI_RIGHT_001_
  6
CONTINUOUS
 62
     7
100
AcDbLine
 10
423.5325042233
 20
286.9470203741
 30
0.0
 11
428.6473897794
 21
283.9939398214
 31
0.0
  0
ARC
  5
37B
330
359
100
AcDbEntity
  8
KOTEI_RIGHT_001_
  6
CONTINUOUS
 62
     7
100
AcDbCircle
 10
423.2825042233
 20
286.5140076722
 30
0.0
 40
0.4999999999999894
100
AcDbArc
 50
60.0
 51
90.0
  0
LINE
  5
37C
330
359
100
AcDbEntity
  8
TANAITA_BLACKET_
  6
CONTINUOUS
 62
     7
100
AcDbLine
 10
406.5265259261
 20
200.1778786399
 30
0.0
 11
405.6733888411
 21
199.9467060104
 31
0.0
  0
LINE
  5
37D
330
359
100
AcDbEntity
  8
TANAITA_BLACKET_
  6
CONTINUOUS
 62
     7
100
AcDbLine
 10
406.5265259261
 20
202.4166037388
 30
0.0
 11
406.5265259261
 21
200.1778786399
 31
0.0
  0
ARC
  5
37E
330
359
100
AcDbEntity
  8
TANAITA_BLACKET_
  6
CONTINUOUS
 62
     7
100
AcDbCircle
 10
405.2715379207
 20
203.0166839119
 30
0.0
 40
3.09616673935915
100
AcDbArc
 50
275.3505360401
 51
277.4574469296
  0
LINE
  5
37F
330
359
100
AcDbEntity
  8
TANAITA_BLACKET_
  6
CONTINUOUS
 62
     7
100
AcDbLine
 10
428.5072940954
 20
206.1339577567
 30
0.0
 11
406.5265259261
 21
200.1778786399
 31
0.0
  0
ARC
  5
380
330
359
100
AcDbEntity
  8
TANAITA_BLACKET_
  6
CONTINUOUS
 62
     7
100
AcDbCircle
 10
428.3765259261
 20
206.6165545718
 30
0.0
 40
0.5000000000000004
100
AcDbArc
 50
285.1612425781
 51
348.1650099775
  0
ARC
  5
381
330
359
100
AcDbEntity
  8
TANAITA_HONNTAI_
  6
CONTINUOUS
 62
     7
100
AcDbCircle
 10
436.5065259261
 20
206.5940076722
 30
0.0
 40
0.0799999999999912
100
AcDbArc
 50
180.0
 51
270.0
  0
LINE
  5
382
330
359
100
AcDbEntity
  8
TANAITA_HONNTAI_
  6
CONTINUOUS
 62
     7
100
AcDbLine
 10
436.3765259261
 20
206.5140076722
 30
0.0
 11
408.0829836714
 21
206.5140076722
 31
0.0
  0
LINE
  5
383
330
359
100
AcDbEntity
  8
TANAITA_HONNTAI_
  6
CONTINUOUS
 62
     7
100
AcDbLine
 10
436.3765259261
 20
206.5940076722
 30
0.0
 11
436.3765259261
 21
206.6440076722
 31
0.0
  0
LINE
  5
384
330
359
100
AcDbEntity
  8
TANAITA_HONNTAI_
  6
CONTINUOUS
 62
     7
100
AcDbLine
 10
436.3765259261
 20
206.6440076722
 30
0.0
 11
437.3465259261
 21
206.6440076722
 31
0.0
  0
ARC
  5
385
330
359
100
AcDbEntity
  8
TANAITA_HONNTAI_
  6
CONTINUOUS
 62
     7
100
AcDbCircle
 10
437.3465259261
 20
206.9440076722
 30
0.0
 40
0.3000000000000003
100
AcDbArc
 50
270.0
 51
0.0
  0
LINE
  5
386
330
359
100
AcDbEntity
  8
TANAITA_HONNTAI_
  6
CONTINUOUS
 62
     7
100
AcDbLine
 10
437.6465259261
 20
206.9440076722
 30
0.0
 11
437.6465259261
 21
207.9803880726
 31
0.0
  0
LINE
  5
387
330
359
100
AcDbEntity
  8
TANAITA_HONNTAI_
  6
CONTINUOUS
 62
     7
100
AcDbLine
 10
437.6465259261
 20
207.9803880726
 30
0.0
 11
437.2765259261
 21
208.1940076722
 31
0.0
  0
LINE
  5
388
330
359
100
AcDbEntity
  8
TANAITA_HONNTAI_
  6
CONTINUOUS
 62
     7
100
AcDbLine
 10
437.2765259261
 20
208.1940076722
 30
0.0
 11
437.2765259261
 21
208.4340076722
 31
0.0
  0
LINE
  5
389
330
359
100
AcDbEntity
  8
TANAITA_HONNTAI_
  6
CONTINUOUS
 62
     7
100
AcDbLine
 10
436.6765259261
 20
206.5140076722
 30
0.0
 11
436.5065259261
 21
206.5140076722
 31
0.0
  0
LINE
  5
38A
330
359
100
AcDbEntity
  8
TANAITA_HONNTAI_
  6
CONTINUOUS
 62
     7
100
AcDbLine
 10
437.3565259261
 20
206.5140076722
 30
0.0
 11
436.8765259261
 21
206.5140076722
 31
0.0
  0
LINE
  5
38B
330
359
100
AcDbEntity
  8
TANAITA_HONNTAI_
  6
CONTINUOUS
 62
     7
100
AcDbLine
 10
436.8765259261
 20
206.5940076722
 30
0.0
 11
437.3565259261
 21
206.5940076722
 31
0.0
  0
LINE
  5
38C
330
359
100
AcDbEntity
  8
TANAITA_HONNTAI_
  6
CONTINUOUS
 62
     7
100
AcDbLine
 10
437.7765259261
 20
208.0940076722
 30
0.0
 11
437.7765259261
 21
206.9340076722
 31
0.0
  0
LINE
  5
38D
330
359
100
AcDbEntity
  8
TANAITA_HONNTAI_
  6
CONTINUOUS
 62
     7
100
AcDbLine
 10
437.6965259261
 20
206.9340076722
 30
0.0
 11
437.6965259261
 21
208.0940076722
 31
0.0
  0
LINE
  5
38E
330
359
100
AcDbEntity
  8
TANAITA_HONNTAI_
  6
CONTINUOUS
 62
     7
100
AcDbLine
 10
437.3565259261
 20
208.4340076722
 30
0.0
 11
437.2765259261
 21
208.4340076722
 31
0.0
  0
LINE
  5
38F
330
359
100
AcDbEntity
  8
TANAITA_HONNTAI_
  6
CONTINUOUS
 62
     7
100
AcDbLine
 10
437.2765259261
 20
208.5140076722
 30
0.0
 11
437.3565259261
 21
208.5140076722
 31
0.0
  0
LINE
  5
390
330
359
100
AcDbEntity
  8
TANAITA_HONNTAI_
  6
CONTINUOUS
 62
     7
100
AcDbLine
 10
408.8427124024
 20
208.5140076722
 30
0.0
 11
437.2765259261
 21
208.5140076722
 31
0.0
  0
LINE
  5
391
330
359
100
AcDbEntity
  8
TANAITA_HONNTAI_
  6
CONTINUOUS
 62
     7
100
AcDbLine
 10
437.2765259261
 20
208.4869226984
 30
0.0
 11
437.2765259261
 21
208.4340076722
 31
0.0
  0
ARC
  5
392
330
359
100
AcDbEntity
  8
TANAITA_HONNTAI_
  6
CONTINUOUS
 62
     7
100
AcDbCircle
 10
437.3565259261
 20
208.0940076722
 30
0.0
 40
0.4199999999999982
100
AcDbArc
 50
0.0
 51
90.0
  0
ARC
  5
393
330
359
100
AcDbEntity
  8
TANAITA_HONNTAI_
  6
CONTINUOUS
 62
     7
100
AcDbCircle
 10
437.3565259261
 20
208.0940076722
 30
0.0
 40
0.340000000000007
100
AcDbArc
 50
0.0
 51
90.0
  0
ARC
  5
394
330
359
100
AcDbEntity
  8
TANAITA_HONNTAI_
  6
CONTINUOUS
 62
     7
100
AcDbCircle
 10
437.3565259261
 20
206.9340076722
 30
0.0
 40
0.4199999999999982
100
AcDbArc
 50
270.0
 51
0.0
  0
ARC
  5
395
330
359
100
AcDbEntity
  8
TANAITA_HONNTAI_
  6
CONTINUOUS
 62
     7
100
AcDbCircle
 10
437.3565259261
 20
206.9340076722
 30
0.0
 40
0.340000000000007
100
AcDbArc
 50
270.0
 51
0.0
  0
LINE
  5
396
330
359
100
AcDbEntity
  8
TANAITA_HONNTAI_
  6
CONTINUOUS
 62
     7
100
AcDbLine
 10
436.4265259261
 20
206.5940076722
 30
0.0
 11
436.4265259261
 21
206.6440076722
 31
0.0
  0
LINE
  5
397
330
359
100
AcDbEntity
  8
TANAITA_HONNTAI_
  6
CONTINUOUS
 62
     7
100
AcDbLine
 10
436.5065259261
 20
206.6440076722
 30
0.0
 11
436.5065259261
 21
206.5940076722
 31
0.0
  0
LINE
  5
398
330
359
100
AcDbEntity
  8
TANAITA_HONNTAI_
  6
CONTINUOUS
 62
     7
100
AcDbLine
 10
436.3765259261
 20
206.5940076722
 30
0.0
 11
436.3765259261
 21
206.5140076722
 31
0.0
  0
LINE
  5
399
330
359
100
AcDbEntity
  8
TANAITA_HONNTAI_
  6
CONTINUOUS
 62
     7
100
AcDbLine
 10
437.2765259261
 20
208.4869226984
 30
0.0
 11
437.2765259261
 21
208.5140076722
 31
0.0
  0
LINE
  5
39A
330
359
100
AcDbEntity
  8
TANAITA_HONNTAI_
  6
CONTINUOUS
 62
     7
100
AcDbLine
 10
436.6765259261
 20
206.5940076722
 30
0.0
 11
436.5065259261
 21
206.5940076722
 31
0.0
  0
LINE
  5
39B
330
359
100
AcDbEntity
  8
TANAITA_HONNTAI_
  6
CONTINUOUS
 62
     7
100
AcDbLine
 10
436.6765259261
 20
206.5140076722
 30
0.0
 11
436.8765259261
 21
206.5140076722
 31
0.0
  0
LINE
  5
39C
330
359
100
AcDbEntity
  8
TANAITA_HONNTAI_
  6
CONTINUOUS
 62
     7
100
AcDbLine
 10
436.8765259261
 20
206.5140076722
 30
0.0
 11
436.8765259261
 21
206.5940076722
 31
0.0
  0
LINE
  5
39D
330
359
100
AcDbEntity
  8
TANAITA_HONNTAI_
  6
CONTINUOUS
 62
     7
100
AcDbLine
 10
436.8765259261
 20
206.5940076722
 30
0.0
 11
436.6765259261
 21
206.5940076722
 31
0.0
  0
LINE
  5
39E
330
359
100
AcDbEntity
  8
TANAITA_HONNTAI_
  6
CONTINUOUS
 62
     7
100
AcDbLine
 10
436.6765259261
 20
206.5940076722
 30
0.0
 11
436.6765259261
 21
206.5140076722
 31
0.0
  0
LINE
  5
39F
330
359
100
AcDbEntity
  8
ADJUSTER_001_SEP
  6
CONTINUOUS
 62
     7
100
AcDbLine
 10
380.5609605304
 20
154.5164128864
 30
0.0
 11
376.7109605304
 21
154.5164128864
 31
0.0
  0
LINE
  5
3A0
330
359
100
AcDbEntity
  8
ADJUSTER_001_SEP
  6
CONTINUOUS
 62
     7
100
AcDbLine
 10
379.1359605304
 20
157.3164128864
 30
0.0
 11
378.1359605304
 21
157.3164128864
 31
0.0
  0
LINE
  5
3A1
330
359
100
AcDbEntity
  8
ADJUSTER_001_SEP
  6
CONTINUOUS
 62
     7
100
AcDbLine
 10
376.7109605304
 20
153.6164128864
 30
0.0
 11
376.7168135844
 21
153.6164128864
 31
0.0
  0
LINE
  5
3A2
330
359
100
AcDbEntity
  8
ADJUSTER_001_SEP
  6
CONTINUOUS
 62
     7
100
AcDbLine
 10
376.8109605304
 20
153.5164128864
 30
0.0
 11
380.4609605304
 21
153.5164128864
 31
0.0
  0
LINE
  5
3A3
330
359
100
AcDbEntity
  8
ADJUSTER_001_SEP
  6
CONTINUOUS
 62
     7
100
AcDbLine
 10
376.7168135844
 20
154.4164128864
 30
0.0
 11
376.7168135844
 21
153.6164128864
 31
0.0
  0
LINE
  5
3A4
330
359
100
AcDbEntity
  8
ADJUSTER_001_SEP
  6
CONTINUOUS
 62
     7
100
AcDbLine
 10
376.7109605304
 20
154.4164128864
 30
0.0
 11
376.7168135844
 21
154.4164128864
 31
0.0
  0
LINE
  5
3A5
330
359
100
AcDbEntity
  8
ADJUSTER_001_SEP
  6
CONTINUOUS
 62
     7
100
AcDbLine
 10
380.5551074763
 20
153.6164128864
 30
0.0
 11
380.5609605304
 21
153.6164128864
 31
0.0
  0
LINE
  5
3A6
330
359
100
AcDbEntity
  8
ADJUSTER_001_SEP
  6
CONTINUOUS
 62
     7
100
AcDbLine
 10
380.5551074763
 20
154.4164128864
 30
0.0
 11
380.5551074763
 21
153.6164128864
 31
0.0
  0
LINE
  5
3A7
330
359
100
AcDbEntity
  8
ADJUSTER_001_SEP
  6
CONTINUOUS
 62
     7
100
AcDbLine
 10
380.5551074763
 20
154.4164128864
 30
0.0
 11
380.5609605304
 21
154.4164128864
 31
0.0
  0
LINE
  5
3A8
330
359
100
AcDbEntity
  8
ADJUSTER_001_SEP
  6
CONTINUOUS
 62
     7
100
AcDbLine
 10
380.4191914984
 20
154.4164128864
 30
0.0
 11
380.4191914984
 21
153.6164128864
 31
0.0
  0
LINE
  5
3A9
330
359
100
AcDbEntity
  8
ADJUSTER_001_SEP
  6
CONTINUOUS
 62
     7
100
AcDbLine
 10
380.4148251898
 20
153.6164128864
 30
0.0
 11
380.5075302881
 21
153.6164128864
 31
0.0
  0
LINE
  5
3AA
330
359
100
AcDbEntity
  8
ADJUSTER_001_SEP
  6
CONTINUOUS
 62
     7
100
AcDbLine
 10
380.4148251898
 20
154.4164128864
 30
0.0
 11
380.4148251898
 21
153.6164128864
 31
0.0
  0
LINE
  5
3AB
330
359
100
AcDbEntity
  8
ADJUSTER_001_SEP
  6
CONTINUOUS
 62
     7
100
AcDbLine
 10
380.5075302881
 20
154.4164128864
 30
0.0
 11
380.5075302881
 21
153.6164128864
 31
0.0
  0
LINE
  5
3AC
330
359
100
AcDbEntity
  8
ADJUSTER_001_SEP
  6
CONTINUOUS
 62
     7
100
AcDbLine
 10
380.4148251898
 20
154.4164128864
 30
0.0
 11
380.5075302881
 21
154.4164128864
 31
0.0
  0
LINE
  5
3AD
330
359
100
AcDbEntity
  8
ADJUSTER_001_SEP
  6
CONTINUOUS
 62
     7
100
AcDbLine
 10
380.1528673948
 20
154.4164128864
 30
0.0
 11
380.1528673948
 21
153.6164128864
 31
0.0
  0
LINE
  5
3AE
330
359
100
AcDbEntity
  8
ADJUSTER_001_SEP
  6
CONTINUOUS
 62
     7
100
AcDbLine
 10
380.1004152365
 20
153.6164128864
 30
0.0
 11
380.2767508121
 21
153.6164128864
 31
0.0
  0
LINE
  5
3AF
330
359
100
AcDbEntity
  8
ADJUSTER_001_SEP
  6
CONTINUOUS
 62
     7
100
AcDbLine
 10
380.1004152365
 20
154.4164128864
 30
0.0
 11
380.1004152365
 21
153.6164128864
 31
0.0
  0
LINE
  5
3B0
330
359
100
AcDbEntity
  8
ADJUSTER_001_SEP
  6
CONTINUOUS
 62
     7
100
AcDbLine
 10
380.2767508121
 20
154.4164128864
 30
0.0
 11
380.2767508121
 21
153.6164128864
 31
0.0
  0
LINE
  5
3B1
330
359
100
AcDbEntity
  8
ADJUSTER_001_SEP
  6
CONTINUOUS
 62
     7
100
AcDbLine
 10
380.1004152365
 20
154.4164128864
 30
0.0
 11
380.2767508121
 21
154.4164128864
 31
0.0
  0
LINE
  5
3B2
330
359
100
AcDbEntity
  8
ADJUSTER_001_SEP
  6
CONTINUOUS
 62
     7
100
AcDbLine
 10
379.7380578784
 20
154.4164128864
 30
0.0
 11
379.7380578784
 21
153.6164128864
 31
0.0
  0
LINE
  5
3B3
330
359
100
AcDbEntity
  8
ADJUSTER_001_SEP
  6
CONTINUOUS
 62
     7
100
AcDbLine
 10
379.642654253
 20
153.6164128864
 30
0.0
 11
379.8853593513
 21
153.6164128864
 31
0.0
  0
LINE
  5
3B4
330
359
100
AcDbEntity
  8
ADJUSTER_001_SEP
  6
CONTINUOUS
 62
     7
100
AcDbLine
 10
379.642654253
 20
154.4164128864
 30
0.0
 11
379.642654253
 21
153.6164128864
 31
0.0
  0
LINE
  5
3B5
330
359
100
AcDbEntity
  8
ADJUSTER_001_SEP
  6
CONTINUOUS
 62
     7
100
AcDbLine
 10
379.8853593513
 20
154.4164128864
 30
0.0
 11
379.8853593513
 21
153.6164128864
 31
0.0
  0
LINE
  5
3B6
330
359
100
AcDbEntity
  8
ADJUSTER_001_SEP
  6
CONTINUOUS
 62
     7
100
AcDbLine
 10
379.642654253
 20
154.4164128864
 30
0.0
 11
379.8853593513
 21
154.4164128864
 31
0.0
  0
LINE
  5
3B7
330
359
100
AcDbEntity
  8
ADJUSTER_001_SEP
  6
CONTINUOUS
 62
     7
100
AcDbLine
 10
379.2153673948
 20
154.4164128864
 30
0.0
 11
379.2153673948
 21
153.6164128864
 31
0.0
  0
LINE
  5
3B8
330
359
100
AcDbEntity
  8
ADJUSTER_001_SEP
  6
CONTINUOUS
 62
     7
100
AcDbLine
 10
379.0863510739
 20
153.6164128864
 30
0.0
 11
379.3716680288
 21
153.6164128864
 31
0.0
  0
LINE
  5
3B9
330
359
100
AcDbEntity
  8
ADJUSTER_001_SEP
  6
CONTINUOUS
 62
     7
100
AcDbLine
 10
379.0863510739
 20
154.4164128864
 30
0.0
 11
379.0863510739
 21
153.6164128864
 31
0.0
  0
LINE
  5
3BA
330
359
100
AcDbEntity
  8
ADJUSTER_001_SEP
  6
CONTINUOUS
 62
     7
100
AcDbLine
 10
379.3716680288
 20
154.4164128864
 30
0.0
 11
379.3716680288
 21
153.6164128864
 31
0.0
  0
LINE
  5
3BB
330
359
100
AcDbEntity
  8
ADJUSTER_001_SEP
  6
CONTINUOUS
 62
     7
100
AcDbLine
 10
379.0863510739
 20
154.4164128864
 30
0.0
 11
379.3716680288
 21
154.4164128864
 31
0.0
  0
LINE
  5
3BC
330
359
100
AcDbEntity
  8
ADJUSTER_001_SEP
  6
CONTINUOUS
 62
     7
100
AcDbLine
 10
378.6359605304
 20
154.4164128864
 30
0.0
 11
378.6359605304
 21
153.6164128864
 31
0.0
  0
LINE
  5
3BD
330
359
100
AcDbEntity
  8
ADJUSTER_001_SEP
  6
CONTINUOUS
 62
     7
100
AcDbLine
 10
378.4859605304
 20
153.6164128864
 30
0.0
 11
378.7859605304
 21
153.6164128864
 31
0.0
  0
LINE
  5
3BE
330
359
100
AcDbEntity
  8
ADJUSTER_001_SEP
  6
CONTINUOUS
 62
     7
100
AcDbLine
 10
378.4859605304
 20
154.4164128864
 30
0.0
 11
378.4859605304
 21
153.6164128864
 31
0.0
  0
LINE
  5
3BF
330
359
100
AcDbEntity
  8
ADJUSTER_001_SEP
  6
CONTINUOUS
 62
     7
100
AcDbLine
 10
378.7859605304
 20
154.4164128864
 30
0.0
 11
378.7859605304
 21
153.6164128864
 31
0.0
  0
LINE
  5
3C0
330
359
100
AcDbEntity
  8
ADJUSTER_001_SEP
  6
CONTINUOUS
 62
     7
100
AcDbLine
 10
378.4859605304
 20
154.4164128864
 30
0.0
 11
378.7859605304
 21
154.4164128864
 31
0.0
  0
LINE
  5
3C1
330
359
100
AcDbEntity
  8
ADJUSTER_001_SEP
  6
CONTINUOUS
 62
     7
100
AcDbLine
 10
378.0565536659
 20
154.4164128864
 30
0.0
 11
378.0565536659
 21
153.6164128864
 31
0.0
  0
LINE
  5
3C2
330
359
100
AcDbEntity
  8
ADJUSTER_001_SEP
  6
CONTINUOUS
 62
     7
100
AcDbLine
 10
377.9002530319
 20
153.6164128864
 30
0.0
 11
378.1855699868
 21
153.6164128864
 31
0.0
  0
LINE
  5
3C3
330
359
100
AcDbEntity
  8
ADJUSTER_001_SEP
  6
CONTINUOUS
 62
     7
100
AcDbLine
 10
377.9002530319
 20
154.4164128864
 30
0.0
 11
377.9002530319
 21
153.6164128864
 31
0.0
  0
LINE
  5
3C4
330
359
100
AcDbEntity
  8
ADJUSTER_001_SEP
  6
CONTINUOUS
 62
     7
100
AcDbLine
 10
378.1855699868
 20
154.4164128864
 30
0.0
 11
378.1855699868
 21
153.6164128864
 31
0.0
  0
LINE
  5
3C5
330
359
100
AcDbEntity
  8
ADJUSTER_001_SEP
  6
CONTINUOUS
 62
     7
100
AcDbLine
 10
377.9002530319
 20
154.4164128864
 30
0.0
 11
378.1855699868
 21
154.4164128864
 31
0.0
  0
LINE
  5
3C6
330
359
100
AcDbEntity
  8
ADJUSTER_001_SEP
  6
CONTINUOUS
 62
     7
100
AcDbLine
 10
377.5338631823
 20
154.4164128864
 30
0.0
 11
377.5338631823
 21
153.6164128864
 31
0.0
  0
LINE
  5
3C7
330
359
100
AcDbEntity
  8
ADJUSTER_001_SEP
  6
CONTINUOUS
 62
     7
100
AcDbLine
 10
377.3865617094
 20
153.6164128864
 30
0.0
 11
377.6292668077
 21
153.6164128864
 31
0.0
  0
LINE
  5
3C8
330
359
100
AcDbEntity
  8
ADJUSTER_001_SEP
  6
CONTINUOUS
 62
     7
100
AcDbLine
 10
377.3865617094
 20
154.4164128864
 30
0.0
 11
377.3865617094
 21
153.6164128864
 31
0.0
  0
LINE
  5
3C9
330
359
100
AcDbEntity
  8
ADJUSTER_001_SEP
  6
CONTINUOUS
 62
     7
100
AcDbLine
 10
377.6292668077
 20
154.4164128864
 30
0.0
 11
377.6292668077
 21
153.6164128864
 31
0.0
  0
LINE
  5
3CA
330
359
100
AcDbEntity
  8
ADJUSTER_001_SEP
  6
CONTINUOUS
 62
     7
100
AcDbLine
 10
377.3865617094
 20
154.4164128864
 30
0.0
 11
377.6292668077
 21
154.4164128864
 31
0.0
  0
LINE
  5
3CB
330
359
100
AcDbEntity
  8
ADJUSTER_001_SEP
  6
CONTINUOUS
 62
     7
100
AcDbLine
 10
377.1190536659
 20
154.4164128864
 30
0.0
 11
377.1190536659
 21
153.6164128864
 31
0.0
  0
LINE
  5
3CC
330
359
100
AcDbEntity
  8
ADJUSTER_001_SEP
  6
CONTINUOUS
 62
     7
100
AcDbLine
 10
376.9951702486
 20
153.6164128864
 30
0.0
 11
377.1715058243
 21
153.6164128864
 31
0.0
  0
LINE
  5
3CD
330
359
100
AcDbEntity
  8
ADJUSTER_001_SEP
  6
CONTINUOUS
 62
     7
100
AcDbLine
 10
376.9951702486
 20
154.4164128864
 30
0.0
 11
376.9951702486
 21
153.6164128864
 31
0.0
  0
LINE
  5
3CE
330
359
100
AcDbEntity
  8
ADJUSTER_001_SEP
  6
CONTINUOUS
 62
     7
100
AcDbLine
 10
377.1715058243
 20
154.4164128864
 30
0.0
 11
377.1715058243
 21
153.6164128864
 31
0.0
  0
LINE
  5
3CF
330
359
100
AcDbEntity
  8
ADJUSTER_001_SEP
  6
CONTINUOUS
 62
     7
100
AcDbLine
 10
376.9951702486
 20
154.4164128864
 30
0.0
 11
377.1715058243
 21
154.4164128864
 31
0.0
  0
LINE
  5
3D0
330
359
100
AcDbEntity
  8
ADJUSTER_001_SEP
  6
CONTINUOUS
 62
     7
100
AcDbLine
 10
376.8527295623
 20
154.4164128864
 30
0.0
 11
376.8527295623
 21
153.6164128864
 31
0.0
  0
LINE
  5
3D1
330
359
100
AcDbEntity
  8
ADJUSTER_001_SEP
  6
CONTINUOUS
 62
     7
100
AcDbLine
 10
376.7643907726
 20
153.6164128864
 30
0.0
 11
376.8570958709
 21
153.6164128864
 31
0.0
  0
LINE
  5
3D2
330
359
100
AcDbEntity
  8
ADJUSTER_001_SEP
  6
CONTINUOUS
 62
     7
100
AcDbLine
 10
376.7643907726
 20
154.4164128864
 30
0.0
 11
376.7643907726
 21
153.6164128864
 31
0.0
  0
LINE
  5
3D3
330
359
100
AcDbEntity
  8
ADJUSTER_001_SEP
  6
CONTINUOUS
 62
     7
100
AcDbLine
 10
376.8570958709
 20
154.4164128864
 30
0.0
 11
376.8570958709
 21
153.6164128864
 31
0.0
  0
LINE
  5
3D4
330
359
100
AcDbEntity
  8
ADJUSTER_001_SEP
  6
CONTINUOUS
 62
     7
100
AcDbLine
 10
376.7643907726
 20
154.4164128864
 30
0.0
 11
376.8570958709
 21
154.4164128864
 31
0.0
  0
LINE
  5
3D5
330
359
100
AcDbEntity
  8
ADJUSTER_001_SEP
  6
CONTINUOUS
 62
     7
100
AcDbLine
 10
379.1359605304
 20
154.5164128864
 30
0.0
 11
379.1359605304
 21
155.4864128864
 31
0.0
  0
LINE
  5
3D6
330
359
100
AcDbEntity
  8
ADJUSTER_001_SEP
  6
CONTINUOUS
 62
     7
100
AcDbLine
 10
379.1359605304
 20
155.9364128864
 30
0.0
 11
379.1359605304
 21
157.3164128864
 31
0.0
  0
LINE
  5
3D7
330
359
100
AcDbEntity
  8
ADJUSTER_001_SEP
  6
CONTINUOUS
 62
     7
100
AcDbLine
 10
378.1359605304
 20
157.3164128864
 30
0.0
 11
378.1359605304
 21
155.9364128864
 31
0.0
  0
LINE
  5
3D8
330
359
100
AcDbEntity
  8
ADJUSTER_001_SEP
  6
CONTINUOUS
 62
     7
100
AcDbLine
 10
378.1359605304
 20
155.4864128864
 30
0.0
 11
378.1359605304
 21
154.5164128864
 31
0.0
  0
ARC
  5
3D9
330
359
100
AcDbEntity
  8
ADJUSTER_001_SEP
  6
CONTINUOUS
 62
     7
100
AcDbCircle
 10
376.8109605304
 20
153.6164128864
 30
0.0
 40
0.1000000000000001
100
AcDbArc
 50
180.0
 51
270.0
  0
ARC
  5
3DA
330
359
100
AcDbEntity
  8
ADJUSTER_001_SEP
  6
CONTINUOUS
 62
     7
100
AcDbCircle
 10
380.4609605304
 20
153.6164128864
 30
0.0
 40
0.1
100
AcDbArc
 50
270.0
 51
0.0
  0
LINE
  5
3DB
330
359
100
AcDbEntity
  8
ADJUSTER_001_SEP
  6
CONTINUOUS
 62
     7
100
AcDbLine
 10
380.5609605304
 20
154.4164128864
 30
0.0
 11
380.5609605304
 21
154.5164128864
 31
0.0
  0
LINE
  5
3DC
330
359
100
AcDbEntity
  8
ADJUSTER_001_SEP
  6
CONTINUOUS
 62
     7
100
AcDbLine
 10
376.7109605304
 20
154.5164128864
 30
0.0
 11
376.7109605304
 21
154.4164128864
 31
0.0
  0
LINE
  5
3DD
330
359
100
AcDbEntity
  8
SITYUU_COVER_RIG
  6
CONTINUOUS
 62
     7
100
AcDbLine
 10
436.9399734028
 20
304.0140076722
 30
0.0
 11
379.0994461596
 21
164.3746223468
 31
0.0
  0
LINE
  5
3DE
330
359
100
AcDbEntity
  8
SITYUU_COVER_RIG
  6
CONTINUOUS
 62
     7
100
AcDbLine
 10
441.3724588302
 20
304.0140076722
 30
0.0
 11
437.7422218874
 21
304.0140076722
 31
0.0
  0
ELLIPSE
  5
3DF
330
359
100
AcDbEntity
  8
SITYUU_COVER_RIG
  6
CONTINUOUS
 62
     7
100
AcDbEllipse
 10
383.5416620708
 20
164.3440076722
 30
0.0
 11
0.02157344651713966
 21
-0.000447816348121688
 31
0.0
210
0.0
220
0.0
230
1.0
 40
0.089986861
 41
3.106503039036763
 42
3.368302426747733
  0
LINE
  5
3E0
330
359
100
AcDbEntity
  8
SITYUU_COVER_RIG
  6
CONTINUOUS
 62
     7
100
AcDbLine
 10
379.911425128
 20
164.3440076722
 30
0.0
 11
379.8922957185
 21
164.351931333
 31
0.0
  0
LINE
  5
3E1
330
359
100
AcDbEntity
  8
SITYUU_COVER_RIG
  6
CONTINUOUS
 62
     7
100
AcDbLine
 10
379.8922957185
 20
164.351931333
 30
0.0
 11
383.5225326613
 21
164.351931333
 31
0.0
  0
LINE
  5
3E2
330
359
100
AcDbEntity
  8
SITYUU_COVER_RIG
  6
CONTINUOUS
 62
     7
100
AcDbLine
 10
379.911425128
 20
164.3440076722
 30
0.0
 11
383.5206316046
 21
164.3440076722
 31
0.0
  0
LINE
  5
3E3
330
359
100
AcDbEntity
  8
SITYUU_COVER_RIG
  6
CONTINUOUS
 62
     7
100
AcDbLine
 10
383.521044225
 20
164.3450038259
 30
0.0
 11
383.5206316046
 21
164.3440076722
 31
0.0
  0
LINE
  5
3E4
330
359
100
AcDbEntity
  8
SITYUU_COVER_RIG
  6
CONTINUOUS
 62
     7
100
AcDbLine
 10
383.5416620708
 20
164.3440076722
 30
0.0
 11
391.9785259261
 21
164.3440076722
 31
0.0
  0
LINE
  5
3E5
330
359
100
AcDbEntity
  8
SITYUU_COVER_RIG
  6
CONTINUOUS
 62
     7
100
AcDbLine
 10
383.5416620708
 20
164.3440076722
 30
0.0
 11
383.5225326613
 21
164.351931333
 31
0.0
  0
LINE
  5
3E6
330
359
100
AcDbEntity
  8
SITYUU_COVER_RIG
  6
CONTINUOUS
 62
     7
100
AcDbLine
 10
441.3724588302
 20
304.0140076722
 30
0.0
 11
441.3835536022
 21
304.0139731907
 31
0.0
  0
LINE
  5
3E7
330
359
100
AcDbEntity
  8
SITYUU_COVER_RIG
  6
CONTINUOUS
 62
     7
100
AcDbLine
 10
441.3835536022
 20
304.0139731907
 30
0.0
 11
441.3948703275
 21
304.0140076722
 31
0.0
  0
SPLINE
  5
3E8
330
359
100
AcDbEntity
  8
SITYUU_COVER_RIG
  6
CONTINUOUS
 62
     7
100
AcDbSpline
210
0.0
220
0.0
230
1.0
 70
     8
 71
     3
 72
    14
 73
    10
 74
     0
 42
0.0000001134232523
 43
0.0000000001
 40
0.0
 40
0.0
 40
0.0
 40
0.0
 40
0.25
 40
0.25
 40
0.5
 40
0.5
 40
0.75
 40
0.75
 40
1.0
 40
1.0
 40
1.0
 40
1.0
 10
392.064103378713
 20
164.3440076721674
 30
0.0
 10
392.0632039423264
 20
164.3416398891685
 30
0.0
 10
392.0603583314891
 20
164.3400123113669
 30
0.0
 10
392.0510672278973
 20
164.3381236997496
 30
0.0
 10
392.0446248363162
 20
164.3378619493458
 30
0.0
 10
392.0289818664108
 20
164.3383861853954
 30
0.0
 10
392.0197867352679
 20
164.3391701026586
 30
0.0
 10
391.9998995839807
 20
164.3413065519757
 30
0.0
 10
391.9892165015999
 20
164.342656150329
 30
0.0
 10
391.9785259261247
 20
164.3440076721674
 30
0.0
  0
ARC
  5
3E9
330
359
100
AcDbEntity
  8
SITYUU_COVER_RIG
  6
CONTINUOUS
 62
     7
100
AcDbCircle
 10
379.7967680905
 20
174.8769619713
 30
0.0
 40
10.52546414487582
100
AcDbArc
 50
266.2013182275
 51
270.5200155527
  0
ARC
  5
3EA
330
359
100
AcDbEntity
  8
SITYUU_COVER_RIG
  6
CONTINUOUS
 62
     7
100
AcDbCircle
 10
437.3410976451
 20
460.9314928579
 30
0.0
 40
156.9179978767848
100
AcDbArc
 50
269.853536551
 51
270.146463449
  0
ARC
  5
3EB
330
359
100
AcDbEntity
  8
SITYUU_COVER_RIG
  6
CONTINUOUS
 62
     7
100
AcDbCircle
 10
379.5423908251
 20
173.7215398505
 30
0.0
 40
9.384790678160666
100
AcDbArc
 50
267.7503323046
 51
272.2535996425
  0
LINE
  5
3EC
330
359
100
AcDbEntity
  8
SITYUU_COVER_RIG
  6
CONTINUOUS
 62
     7
100
AcDbLine
 10
444.6911171062
 20
302.8855991152
 30
0.0
 11
392.0641033787
 21
164.3440076722
 31
0.0
  0
LINE
  5
3ED
330
359
100
AcDbEntity
  8
SITYUU_COVER_RIG
  6
CONTINUOUS
 62
     7
100
AcDbLine
 10
444.6911171062
 20
302.8855991152
 30
0.0
 11
444.6163310521
 21
302.9140076722
 31
0.0
  0
CIRCLE
  5
3EE
330
359
100
AcDbEntity
  8
SITYUU_COVER_RIG
  6
CONTINUOUS
 62
     7
100
AcDbCircle
 10
431.7823567457
 20
275.9431799338
 30
0.0
 40
0.2499999999999846
  0
LINE
  5
3EF
330
359
100
AcDbEntity
  8
SITYUU_COVER_RIG
  6
CONTINUOUS
 62
     7
100
AcDbLine
 10
444.6163310521
 20
303.5140076722
 30
0.0
 11
444.6163310521
 21
302.9140076722
 31
0.0
  0
LINE
  5
3F0
330
359
100
AcDbEntity
  8
SITYUU_COVER_RIG
  6
CONTINUOUS
 62
     7
100
AcDbLine
 10
444.1163310521
 20
304.0140076722
 30
0.0
 11
441.3948703275
 21
304.0140076722
 31
0.0
  0
ARC
  5
3F1
330
359
100
AcDbEntity
  8
SITYUU_COVER_RIG
  6
CONTINUOUS
 62
     7
100
AcDbCircle
 10
444.1163310521
 20
303.5140076722
 30
0.0
 40
0.5000000000000117
100
AcDbArc
 50
0.0
 51
90.0
  0
LINE
  5
3F2
330
359
100
AcDbEntity
  8
SITYUU_COVER_RIG
  6
CONTINUOUS
 62
     7
100
AcDbLine
 10
379.1002330361
 20
164.374243523
 30
0.0
 11
379.1740801487
 21
164.3436549792
 31
0.0
  0
ARC
  5
3F4
330
359
100
AcDbEntity
  8
UEHUTA_RIGHT_001
  6
CONTINUOUS
 62
     7
100
AcDbCircle
 10
444.1541818541
 20
303.5540076722
 30
0.0
 40
0.4600000000000049
100
AcDbArc
 50
0.0
 51
90.0
  0
LINE
  5
3F5
330
359
100
AcDbEntity
  8
STOPPER_FTONT_TI
  6
CONTINUOUS
 62
     7
100
AcDbLine
 10
380.9683477806
 20
163.334389063
 30
0.0
 11
377.0859605304
 21
161.3133461831
 31
0.0
  0
LINE
  5
3F6
330
359
100
AcDbEntity
  8
STOPPER_FTONT_TI
  6
CONTINUOUS
 62
     7
100
AcDbLine
 10
380.7605609046
 20
163.733543938
 30
0.0
 11
376.8781736544
 21
161.712501058
 31
0.0
  0
LINE
  5
3F7
330
359
100
AcDbEntity
  8
STOPPER_FTONT_TI
  6
CONTINUOUS
 62
     7
100
AcDbLine
 10
377.0859605304
 20
161.3133461831
 30
0.0
 11
377.0859605304
 21
155.9364128864
 31
0.0
  0
LINE
  5
3F8
330
359
100
AcDbEntity
  8
STOPPER_FTONT_TI
  6
CONTINUOUS
 62
     7
100
AcDbLine
 10
376.6359605304
 20
161.3133461831
 30
0.0
 11
376.6359605304
 21
155.9364128864
 31
0.0
  0
ARC
  5
3F9
330
359
100
AcDbEntity
  8
STOPPER_FTONT_TI
  6
CONTINUOUS
 62
     7
100
AcDbCircle
 10
377.0859605304
 20
161.3133461831
 30
0.0
 40
0.4500000000000001
100
AcDbArc
 50
117.5
 51
180.0
  0
ARC
  5
3FA
330
359
100
AcDbEntity
  8
STOPPER_FTONT_TI
  6
CONTINUOUS
 62
     7
100
AcDbCircle
 10
380.7605609046
 20
163.733543938
 30
0.0
 40
0.4499999999999963
100
AcDbArc
 50
297.5
 51
337.5
  0
ARC
  5
3FB
330
359
100
AcDbEntity
  8
STOPPER_FTONT_TI
  6
CONTINUOUS
 62
     7
100
AcDbCircle
 10
377.0859605304
 20
155.9364128864
 30
0.0
 40
0.4500000000000001
100
AcDbArc
 50
180.0
 51
270.0
  0
LINE
  5
3FC
330
359
100
AcDbEntity
  8
STOPPER_FTONT_TI
  6
CONTINUOUS
 62
     7
100
AcDbLine
 10
381.3676484104
 20
164.0232761597
 30
0.0
 11
381.1763066943
 21
163.5613363934
 31
0.0
  0
LINE
  5
3FD
330
359
100
AcDbEntity
  8
STOPPER_FTONT_TI
  6
CONTINUOUS
 62
     7
100
AcDbLine
 10
380.9519026208
 20
164.1954837042
 30
0.0
 11
380.7605609046
 21
163.733543938
 31
0.0
  0
LINE
  5
3FE
330
359
100
AcDbEntity
  8
STOPPER_FTONT_TI
  6
CONTINUOUS
 62
     7
100
AcDbLine
 10
380.9519026208
 20
164.1954837042
 30
0.0
 11
381.0134232627
 21
164.3440076722
 31
0.0
  0
LINE
  5
3FF
330
359
100
AcDbEntity
  8
STOPPER_FTONT_TI
  6
CONTINUOUS
 62
     7
100
AcDbLine
 10
380.9519026208
 20
164.1954837042
 30
0.0
 11
381.3676484104
 21
164.0232761597
 31
0.0
  0
LINE
  5
400
330
359
100
AcDbEntity
  8
STOPPER_FTONT_TI
  6
CONTINUOUS
 62
     7
100
AcDbLine
 10
380.1359605304
 20
155.4864128864
 30
0.0
 11
380.1359605304
 21
155.9364128864
 31
0.0
  0
LINE
  5
401
330
359
100
AcDbEntity
  8
STOPPER_FTONT_TI
  6
CONTINUOUS
 62
     7
100
AcDbLine
 10
379.6359605304
 20
155.9364128864
 30
0.0
 11
377.0859605304
 21
155.9364128864
 31
0.0
  0
LINE
  5
402
330
359
100
AcDbEntity
  8
STOPPER_FTONT_TI
  6
CONTINUOUS
 62
     7
100
AcDbLine
 10
380.1359605304
 20
155.9364128864
 30
0.0
 11
379.6359605304
 21
155.9364128864
 31
0.0
  0
LINE
  5
403
330
359
100
AcDbEntity
  8
STOPPER_FTONT_TI
  6
CONTINUOUS
 62
     7
100
AcDbLine
 10
379.6359605304
 20
155.4864128864
 30
0.0
 11
377.0859605304
 21
155.4864128864
 31
0.0
  0
LINE
  5
404
330
359
100
AcDbEntity
  8
STOPPER_FTONT_TI
  6
CONTINUOUS
 62
     7
100
AcDbLine
 10
379.6359605304
 20
155.4864128864
 30
0.0
 11
380.1359605304
 21
155.4864128864
 31
0.0
  0
LINE
  5
405
330
359
100
AcDbEntity
  8
STOPPER_FTONT_TI
  6
CONTINUOUS
 62
     7
100
AcDbLine
 10
382.4301098728
 20
163.5831902124
 30
0.0
 11
381.3676484104
 21
164.0232761597
 31
0.0
  0
LINE
  5
406
330
359
100
AcDbEntity
  8
STOPPER_FTONT_TI
  6
CONTINUOUS
 62
     7
100
AcDbLine
 10
382.9617292232
 20
164.3440076722
 30
0.0
 11
382.6914224658
 21
163.6914294325
 31
0.0
  0
ARC
  5
407
330
359
100
AcDbEntity
  8
STOPPER_FTONT_TI
  6
CONTINUOUS
 62
     7
100
AcDbCircle
 10
382.5066465593
 20
163.7679661189
 30
0.0
 40
0.1999999999999989
100
AcDbArc
 50
247.5
 51
337.5
  0
LINE
  5
408
330
359
100
AcDbEntity
  8
BASE_PANEL_001_S
  6
CONTINUOUS
 62
     7
100
AcDbLine
 10
456.5585259261
 20
168.9940076722
 30
0.0
 11
456.3185259261
 21
168.9940076722
 31
0.0
  0
ARC
  5
409
330
359
100
AcDbEntity
  8
BASE_PANEL_001_S
  6
CONTINUOUS
 62
     7
100
AcDbCircle
 10
456.5585259261
 20
168.8740076722
 30
0.0
 40
0.1199999999999979
100
AcDbArc
 50
59.581761724
 51
90.0
  0
LINE
  5
40A
330
359
100
AcDbEntity
  8
HIRAZAGANE_001_S
  6
CONTINUOUS
 62
     7
100
AcDbLine
 10
448.6285259261
 20
164.2940076722
 30
0.0
 11
447.3285259261
 21
164.2940076722
 31
0.0
  0
LINE
  5
40B
330
359
100
AcDbEntity
  8
HIRAZAGANE_001_S
  6
CONTINUOUS
 62
     7
100
AcDbLine
 10
448.6285259261
 20
164.2940076722
 30
0.0
 11
448.6285259261
 21
164.3440076722
 31
0.0
  0
LINE
  5
40C
330
359
100
AcDbEntity
  8
HIRAZAGANE_001_S
  6
CONTINUOUS
 62
     7
100
AcDbLine
 10
447.3285259261
 20
164.3440076722
 30
0.0
 11
447.3285259261
 21
164.2940076722
 31
0.0
  0
LINE
  5
40D
330
359
100
AcDbEntity
  8
BANE_M6_001_SEP-
  6
CONTINUOUS
 62
     7
100
AcDbLine
 10
448.5885259261
 20
164.1440076722
 30
0.0
 11
447.3685259261
 21
164.1440076722
 31
0.0
  0
LINE
  5
40E
330
359
100
AcDbEntity
  8
BANE_M6_001_SEP-
  6
CONTINUOUS
 62
     7
100
AcDbLine
 10
447.3685259261
 20
164.2940076722
 30
0.0
 11
447.3685259261
 21
164.1440076722
 31
0.0
  0
LINE
  5
40F
330
359
100
AcDbEntity
  8
BANE_M6_001_SEP-
  6
CONTINUOUS
 62
     7
100
AcDbLine
 10
448.5885259261
 20
164.1440076722
 30
0.0
 11
448.5885259261
 21
164.2940076722
 31
0.0
  0
LINE
  5
410
330
359
100
AcDbEntity
  8
ROKKAKU_M6_15_00
  6
CONTINUOUS
 62
     7
100
AcDbLine
 10
448.4035259261
 20
163.5440076722
 30
0.0
 11
447.5535259261
 21
163.5440076722
 31
0.0
  0
LINE
  5
411
330
359
100
AcDbEntity
  8
ROKKAKU_M6_15_00
  6
CONTINUOUS
 62
     7
100
AcDbLine
 10
448.4785259261
 20
163.5873089424
 30
0.0
 11
447.4785259261
 21
163.5873089424
 31
0.0
  0
LINE
  5
412
330
359
100
AcDbEntity
  8
ROKKAKU_M6_15_00
  6
CONTINUOUS
 62
     7
100
AcDbLine
 10
447.4785259261
 20
164.1440076722
 30
0.0
 11
447.4785259261
 21
163.5873089424
 31
0.0
  0
LINE
  5
413
330
359
100
AcDbEntity
  8
ROKKAKU_M6_15_00
  6
CONTINUOUS
 62
     7
100
AcDbLine
 10
448.4785259261
 20
163.5873089424
 30
0.0
 11
448.4785259261
 21
164.1440076722
 31
0.0
  0
LINE
  5
414
330
359
100
AcDbEntity
  8
ROKKAKU_M6_15_00
  6
CONTINUOUS
 62
     7
100
AcDbLine
 10
447.4785259261
 20
163.5873089424
 30
0.0
 11
447.5535259261
 21
163.5440076722
 31
0.0
  0
LINE
  5
415
330
359
100
AcDbEntity
  8
ROKKAKU_M6_15_00
  6
CONTINUOUS
 62
     7
100
AcDbLine
 10
448.4035259261
 20
163.5440076722
 30
0.0
 11
448.4785259261
 21
163.5873089424
 31
0.0
  0
LINE
  5
416
330
359
100
AcDbEntity
  8
HIRAZAGANE_001_S
  6
CONTINUOUS
 62
     7
100
AcDbLine
 10
430.0285259261
 20
164.2940076722
 30
0.0
 11
428.7285259261
 21
164.2940076722
 31
0.0
  0
LINE
  5
417
330
359
100
AcDbEntity
  8
HIRAZAGANE_001_S
  6
CONTINUOUS
 62
     7
100
AcDbLine
 10
430.0285259261
 20
164.2940076722
 30
0.0
 11
430.0285259261
 21
164.3440076722
 31
0.0
  0
LINE
  5
418
330
359
100
AcDbEntity
  8
HIRAZAGANE_001_S
  6
CONTINUOUS
 62
     7
100
AcDbLine
 10
428.7285259261
 20
164.3440076722
 30
0.0
 11
428.7285259261
 21
164.2940076722
 31
0.0
  0
LINE
  5
419
330
359
100
AcDbEntity
  8
BANE_M6_001_SEP-
  6
CONTINUOUS
 62
     7
100
AcDbLine
 10
429.9885259261
 20
164.1440076722
 30
0.0
 11
428.7685259261
 21
164.1440076722
 31
0.0
  0
LINE
  5
41A
330
359
100
AcDbEntity
  8
BANE_M6_001_SEP-
  6
CONTINUOUS
 62
     7
100
AcDbLine
 10
428.7685259261
 20
164.2940076722
 30
0.0
 11
428.7685259261
 21
164.1440076722
 31
0.0
  0
LINE
  5
41B
330
359
100
AcDbEntity
  8
BANE_M6_001_SEP-
  6
CONTINUOUS
 62
     7
100
AcDbLine
 10
429.9885259261
 20
164.1440076722
 30
0.0
 11
429.9885259261
 21
164.2940076722
 31
0.0
  0
LINE
  5
41C
330
359
100
AcDbEntity
  8
ROKKAKU_M6_15_00
  6
CONTINUOUS
 62
     7
100
AcDbLine
 10
429.8035259261
 20
163.5440076722
 30
0.0
 11
428.9535259261
 21
163.5440076722
 31
0.0
  0
LINE
  5
41D
330
359
100
AcDbEntity
  8
ROKKAKU_M6_15_00
  6
CONTINUOUS
 62
     7
100
AcDbLine
 10
429.8785259261
 20
163.5873089424
 30
0.0
 11
428.8785259261
 21
163.5873089424
 31
0.0
  0
LINE
  5
41E
330
359
100
AcDbEntity
  8
ROKKAKU_M6_15_00
  6
CONTINUOUS
 62
     7
100
AcDbLine
 10
428.8785259261
 20
164.1440076722
 30
0.0
 11
428.8785259261
 21
163.5873089424
 31
0.0
  0
LINE
  5
41F
330
359
100
AcDbEntity
  8
ROKKAKU_M6_15_00
  6
CONTINUOUS
 62
     7
100
AcDbLine
 10
429.8785259261
 20
163.5873089424
 30
0.0
 11
429.8785259261
 21
164.1440076722
 31
0.0
  0
LINE
  5
420
330
359
100
AcDbEntity
  8
ROKKAKU_M6_15_00
  6
CONTINUOUS
 62
     7
100
AcDbLine
 10
428.8785259261
 20
163.5873089424
 30
0.0
 11
428.9535259261
 21
163.5440076722
 31
0.0
  0
LINE
  5
421
330
359
100
AcDbEntity
  8
ROKKAKU_M6_15_00
  6
CONTINUOUS
 62
     7
100
AcDbLine
 10
429.8035259261
 20
163.5440076722
 30
0.0
 11
429.8785259261
 21
163.5873089424
 31
0.0
  0
LINE
  5
422
330
359
100
AcDbEntity
  8
ADJUSTER_001_SEP
  6
CONTINUOUS
 62
     7
100
AcDbLine
 10
457.6035259261
 20
154.5140076722
 30
0.0
 11
453.7535259261
 21
154.5140076722
 31
0.0
  0
LINE
  5
423
330
359
100
AcDbEntity
  8
ADJUSTER_001_SEP
  6
CONTINUOUS
 62
     7
100
AcDbLine
 10
456.1785259261
 20
157.3140076722
 30
0.0
 11
455.1785259261
 21
157.3140076722
 31
0.0
  0
LINE
  5
424
330
359
100
AcDbEntity
  8
ADJUSTER_001_SEP
  6
CONTINUOUS
 62
     7
100
AcDbLine
 10
457.597672872
 20
153.6140076722
 30
0.0
 11
457.6035259261
 21
153.6140076722
 31
0.0
  0
LINE
  5
425
330
359
100
AcDbEntity
  8
ADJUSTER_001_SEP
  6
CONTINUOUS
 62
     7
100
AcDbLine
 10
453.8535259261
 20
153.5140076722
 30
0.0
 11
457.5035259261
 21
153.5140076722
 31
0.0
  0
LINE
  5
426
330
359
100
AcDbEntity
  8
ADJUSTER_001_SEP
  6
CONTINUOUS
 62
     7
100
AcDbLine
 10
457.597672872
 20
154.4140076722
 30
0.0
 11
457.597672872
 21
153.6140076722
 31
0.0
  0
LINE
  5
427
330
359
100
AcDbEntity
  8
ADJUSTER_001_SEP
  6
CONTINUOUS
 62
     7
100
AcDbLine
 10
457.597672872
 20
154.4140076722
 30
0.0
 11
457.6035259261
 21
154.4140076722
 31
0.0
  0
LINE
  5
428
330
359
100
AcDbEntity
  8
ADJUSTER_001_SEP
  6
CONTINUOUS
 62
     7
100
AcDbLine
 10
457.4617568942
 20
154.4140076722
 30
0.0
 11
457.4617568942
 21
153.6140076722
 31
0.0
  0
LINE
  5
429
330
359
100
AcDbEntity
  8
ADJUSTER_001_SEP
  6
CONTINUOUS
 62
     7
100
AcDbLine
 10
457.4573905856
 20
153.6140076722
 30
0.0
 11
457.5500956839
 21
153.6140076722
 31
0.0
  0
LINE
  5
42A
330
359
100
AcDbEntity
  8
ADJUSTER_001_SEP
  6
CONTINUOUS
 62
     7
100
AcDbLine
 10
457.4573905856
 20
154.4140076722
 30
0.0
 11
457.4573905856
 21
153.6140076722
 31
0.0
  0
LINE
  5
42B
330
359
100
AcDbEntity
  8
ADJUSTER_001_SEP
  6
CONTINUOUS
 62
     7
100
AcDbLine
 10
457.5500956839
 20
154.4140076722
 30
0.0
 11
457.5500956839
 21
153.6140076722
 31
0.0
  0
LINE
  5
42C
330
359
100
AcDbEntity
  8
ADJUSTER_001_SEP
  6
CONTINUOUS
 62
     7
100
AcDbLine
 10
457.4573905856
 20
154.4140076722
 30
0.0
 11
457.5500956839
 21
154.4140076722
 31
0.0
  0
LINE
  5
42D
330
359
100
AcDbEntity
  8
ADJUSTER_001_SEP
  6
CONTINUOUS
 62
     7
100
AcDbLine
 10
457.1954327906
 20
154.4140076722
 30
0.0
 11
457.1954327906
 21
153.6140076722
 31
0.0
  0
LINE
  5
42E
330
359
100
AcDbEntity
  8
ADJUSTER_001_SEP
  6
CONTINUOUS
 62
     7
100
AcDbLine
 10
457.1429806322
 20
153.6140076722
 30
0.0
 11
457.3193162079
 21
153.6140076722
 31
0.0
  0
LINE
  5
42F
330
359
100
AcDbEntity
  8
ADJUSTER_001_SEP
  6
CONTINUOUS
 62
     7
100
AcDbLine
 10
457.1429806322
 20
154.4140076722
 30
0.0
 11
457.1429806322
 21
153.6140076722
 31
0.0
  0
LINE
  5
430
330
359
100
AcDbEntity
  8
ADJUSTER_001_SEP
  6
CONTINUOUS
 62
     7
100
AcDbLine
 10
457.3193162079
 20
154.4140076722
 30
0.0
 11
457.3193162079
 21
153.6140076722
 31
0.0
  0
LINE
  5
431
330
359
100
AcDbEntity
  8
ADJUSTER_001_SEP
  6
CONTINUOUS
 62
     7
100
AcDbLine
 10
457.1429806322
 20
154.4140076722
 30
0.0
 11
457.3193162079
 21
154.4140076722
 31
0.0
  0
LINE
  5
432
330
359
100
AcDbEntity
  8
ADJUSTER_001_SEP
  6
CONTINUOUS
 62
     7
100
AcDbLine
 10
456.7806232742
 20
154.4140076722
 30
0.0
 11
456.7806232742
 21
153.6140076722
 31
0.0
  0
LINE
  5
433
330
359
100
AcDbEntity
  8
ADJUSTER_001_SEP
  6
CONTINUOUS
 62
     7
100
AcDbLine
 10
456.6852196488
 20
153.6140076722
 30
0.0
 11
456.9279247471
 21
153.6140076722
 31
0.0
  0
LINE
  5
434
330
359
100
AcDbEntity
  8
ADJUSTER_001_SEP
  6
CONTINUOUS
 62
     7
100
AcDbLine
 10
456.6852196488
 20
154.4140076722
 30
0.0
 11
456.6852196488
 21
153.6140076722
 31
0.0
  0
LINE
  5
435
330
359
100
AcDbEntity
  8
ADJUSTER_001_SEP
  6
CONTINUOUS
 62
     7
100
AcDbLine
 10
456.9279247471
 20
154.4140076722
 30
0.0
 11
456.9279247471
 21
153.6140076722
 31
0.0
  0
LINE
  5
436
330
359
100
AcDbEntity
  8
ADJUSTER_001_SEP
  6
CONTINUOUS
 62
     7
100
AcDbLine
 10
456.6852196488
 20
154.4140076722
 30
0.0
 11
456.9279247471
 21
154.4140076722
 31
0.0
  0
LINE
  5
437
330
359
100
AcDbEntity
  8
ADJUSTER_001_SEP
  6
CONTINUOUS
 62
     7
100
AcDbLine
 10
456.2579327906
 20
154.4140076722
 30
0.0
 11
456.2579327906
 21
153.6140076722
 31
0.0
  0
LINE
  5
438
330
359
100
AcDbEntity
  8
ADJUSTER_001_SEP
  6
CONTINUOUS
 62
     7
100
AcDbLine
 10
456.1289164697
 20
153.6140076722
 30
0.0
 11
456.4142334246
 21
153.6140076722
 31
0.0
  0
LINE
  5
439
330
359
100
AcDbEntity
  8
ADJUSTER_001_SEP
  6
CONTINUOUS
 62
     7
100
AcDbLine
 10
456.1289164697
 20
154.4140076722
 30
0.0
 11
456.1289164697
 21
153.6140076722
 31
0.0
  0
LINE
  5
43A
330
359
100
AcDbEntity
  8
ADJUSTER_001_SEP
  6
CONTINUOUS
 62
     7
100
AcDbLine
 10
456.4142334246
 20
154.4140076722
 30
0.0
 11
456.4142334246
 21
153.6140076722
 31
0.0
  0
LINE
  5
43B
330
359
100
AcDbEntity
  8
ADJUSTER_001_SEP
  6
CONTINUOUS
 62
     7
100
AcDbLine
 10
456.1289164697
 20
154.4140076722
 30
0.0
 11
456.4142334246
 21
154.4140076722
 31
0.0
  0
LINE
  5
43C
330
359
100
AcDbEntity
  8
ADJUSTER_001_SEP
  6
CONTINUOUS
 62
     7
100
AcDbLine
 10
455.6785259261
 20
154.4140076722
 30
0.0
 11
455.6785259261
 21
153.6140076722
 31
0.0
  0
LINE
  5
43D
330
359
100
AcDbEntity
  8
ADJUSTER_001_SEP
  6
CONTINUOUS
 62
     7
100
AcDbLine
 10
455.5285259261
 20
153.6140076722
 30
0.0
 11
455.8285259261
 21
153.6140076722
 31
0.0
  0
LINE
  5
43E
330
359
100
AcDbEntity
  8
ADJUSTER_001_SEP
  6
CONTINUOUS
 62
     7
100
AcDbLine
 10
455.5285259261
 20
154.4140076722
 30
0.0
 11
455.5285259261
 21
153.6140076722
 31
0.0
  0
LINE
  5
43F
330
359
100
AcDbEntity
  8
ADJUSTER_001_SEP
  6
CONTINUOUS
 62
     7
100
AcDbLine
 10
455.8285259261
 20
154.4140076722
 30
0.0
 11
455.8285259261
 21
153.6140076722
 31
0.0
  0
LINE
  5
440
330
359
100
AcDbEntity
  8
ADJUSTER_001_SEP
  6
CONTINUOUS
 62
     7
100
AcDbLine
 10
455.5285259261
 20
154.4140076722
 30
0.0
 11
455.8285259261
 21
154.4140076722
 31
0.0
  0
LINE
  5
441
330
359
100
AcDbEntity
  8
ADJUSTER_001_SEP
  6
CONTINUOUS
 62
     7
100
AcDbLine
 10
455.0991190617
 20
154.4140076722
 30
0.0
 11
455.0991190617
 21
153.6140076722
 31
0.0
  0
LINE
  5
442
330
359
100
AcDbEntity
  8
ADJUSTER_001_SEP
  6
CONTINUOUS
 62
     7
100
AcDbLine
 10
454.9428184277
 20
153.6140076722
 30
0.0
 11
455.2281353826
 21
153.6140076722
 31
0.0
  0
LINE
  5
443
330
359
100
AcDbEntity
  8
ADJUSTER_001_SEP
  6
CONTINUOUS
 62
     7
100
AcDbLine
 10
454.9428184277
 20
154.4140076722
 30
0.0
 11
454.9428184277
 21
153.6140076722
 31
0.0
  0
LINE
  5
444
330
359
100
AcDbEntity
  8
ADJUSTER_001_SEP
  6
CONTINUOUS
 62
     7
100
AcDbLine
 10
455.2281353826
 20
154.4140076722
 30
0.0
 11
455.2281353826
 21
153.6140076722
 31
0.0
  0
LINE
  5
445
330
359
100
AcDbEntity
  8
ADJUSTER_001_SEP
  6
CONTINUOUS
 62
     7
100
AcDbLine
 10
454.9428184277
 20
154.4140076722
 30
0.0
 11
455.2281353826
 21
154.4140076722
 31
0.0
  0
LINE
  5
446
330
359
100
AcDbEntity
  8
ADJUSTER_001_SEP
  6
CONTINUOUS
 62
     7
100
AcDbLine
 10
454.5764285781
 20
154.4140076722
 30
0.0
 11
454.5764285781
 21
153.6140076722
 31
0.0
  0
LINE
  5
447
330
359
100
AcDbEntity
  8
ADJUSTER_001_SEP
  6
CONTINUOUS
 62
     7
100
AcDbLine
 10
454.4291271052
 20
153.6140076722
 30
0.0
 11
454.6718322035
 21
153.6140076722
 31
0.0
  0
LINE
  5
448
330
359
100
AcDbEntity
  8
ADJUSTER_001_SEP
  6
CONTINUOUS
 62
     7
100
AcDbLine
 10
454.4291271052
 20
154.4140076722
 30
0.0
 11
454.4291271052
 21
153.6140076722
 31
0.0
  0
LINE
  5
449
330
359
100
AcDbEntity
  8
ADJUSTER_001_SEP
  6
CONTINUOUS
 62
     7
100
AcDbLine
 10
454.6718322035
 20
154.4140076722
 30
0.0
 11
454.6718322035
 21
153.6140076722
 31
0.0
  0
LINE
  5
44A
330
359
100
AcDbEntity
  8
ADJUSTER_001_SEP
  6
CONTINUOUS
 62
     7
100
AcDbLine
 10
454.4291271052
 20
154.4140076722
 30
0.0
 11
454.6718322035
 21
154.4140076722
 31
0.0
  0
LINE
  5
44B
330
359
100
AcDbEntity
  8
ADJUSTER_001_SEP
  6
CONTINUOUS
 62
     7
100
AcDbLine
 10
454.1616190617
 20
154.4140076722
 30
0.0
 11
454.1616190617
 21
153.6140076722
 31
0.0
  0
LINE
  5
44C
330
359
100
AcDbEntity
  8
ADJUSTER_001_SEP
  6
CONTINUOUS
 62
     7
100
AcDbLine
 10
454.0377356443
 20
153.6140076722
 30
0.0
 11
454.21407122
 21
153.6140076722
 31
0.0
  0
LINE
  5
44D
330
359
100
AcDbEntity
  8
ADJUSTER_001_SEP
  6
CONTINUOUS
 62
     7
100
AcDbLine
 10
454.0377356443
 20
154.4140076722
 30
0.0
 11
454.0377356443
 21
153.6140076722
 31
0.0
  0
LINE
  5
44E
330
359
100
AcDbEntity
  8
ADJUSTER_001_SEP
  6
CONTINUOUS
 62
     7
100
AcDbLine
 10
454.21407122
 20
154.4140076722
 30
0.0
 11
454.21407122
 21
153.6140076722
 31
0.0
  0
LINE
  5
44F
330
359
100
AcDbEntity
  8
ADJUSTER_001_SEP
  6
CONTINUOUS
 62
     7
100
AcDbLine
 10
454.0377356443
 20
154.4140076722
 30
0.0
 11
454.21407122
 21
154.4140076722
 31
0.0
  0
LINE
  5
450
330
359
100
AcDbEntity
  8
ADJUSTER_001_SEP
  6
CONTINUOUS
 62
     7
100
AcDbLine
 10
453.8952949581
 20
154.4140076722
 30
0.0
 11
453.8952949581
 21
153.6140076722
 31
0.0
  0
LINE
  5
451
330
359
100
AcDbEntity
  8
ADJUSTER_001_SEP
  6
CONTINUOUS
 62
     7
100
AcDbLine
 10
453.8069561683
 20
153.6140076722
 30
0.0
 11
453.8996612666
 21
153.6140076722
 31
0.0
  0
LINE
  5
452
330
359
100
AcDbEntity
  8
ADJUSTER_001_SEP
  6
CONTINUOUS
 62
     7
100
AcDbLine
 10
453.8069561683
 20
154.4140076722
 30
0.0
 11
453.8069561683
 21
153.6140076722
 31
0.0
  0
LINE
  5
453
330
359
100
AcDbEntity
  8
ADJUSTER_001_SEP
  6
CONTINUOUS
 62
     7
100
AcDbLine
 10
453.8996612666
 20
154.4140076722
 30
0.0
 11
453.8996612666
 21
153.6140076722
 31
0.0
  0
LINE
  5
454
330
359
100
AcDbEntity
  8
ADJUSTER_001_SEP
  6
CONTINUOUS
 62
     7
100
AcDbLine
 10
453.8069561683
 20
154.4140076722
 30
0.0
 11
453.8996612666
 21
154.4140076722
 31
0.0
  0
LINE
  5
455
330
359
100
AcDbEntity
  8
ADJUSTER_001_SEP
  6
CONTINUOUS
 62
     7
100
AcDbLine
 10
453.7593789802
 20
153.6140076722
 30
0.0
 11
453.7535259261
 21
153.6140076722
 31
0.0
  0
LINE
  5
456
330
359
100
AcDbEntity
  8
ADJUSTER_001_SEP
  6
CONTINUOUS
 62
     7
100
AcDbLine
 10
453.7593789802
 20
154.4140076722
 30
0.0
 11
453.7593789802
 21
153.6140076722
 31
0.0
  0
LINE
  5
457
330
359
100
AcDbEntity
  8
ADJUSTER_001_SEP
  6
CONTINUOUS
 62
     7
100
AcDbLine
 10
453.7593789802
 20
154.4140076722
 30
0.0
 11
453.7535259261
 21
154.4140076722
 31
0.0
  0
LINE
  5
458
330
359
100
AcDbEntity
  8
ADJUSTER_001_SEP
  6
CONTINUOUS
 62
     7
100
AcDbLine
 10
456.1785259261
 20
154.5140076722
 30
0.0
 11
456.1785259261
 21
155.4940076722
 31
0.0
  0
LINE
  5
459
330
359
100
AcDbEntity
  8
ADJUSTER_001_SEP
  6
CONTINUOUS
 62
     7
100
AcDbLine
 10
456.1785259261
 20
155.9440076722
 30
0.0
 11
456.1785259261
 21
157.3140076722
 31
0.0
  0
LINE
  5
45A
330
359
100
AcDbEntity
  8
ADJUSTER_001_SEP
  6
CONTINUOUS
 62
     7
100
AcDbLine
 10
455.1785259261
 20
157.3140076722
 30
0.0
 11
455.1785259261
 21
155.9440076722
 31
0.0
  0
LINE
  5
45B
330
359
100
AcDbEntity
  8
ADJUSTER_001_SEP
  6
CONTINUOUS
 62
     7
100
AcDbLine
 10
455.1785259261
 20
155.4940076722
 30
0.0
 11
455.1785259261
 21
154.5140076722
 31
0.0
  0
ARC
  5
45C
330
359
100
AcDbEntity
  8
ADJUSTER_001_SEP
  6
CONTINUOUS
 62
     7
100
AcDbCircle
 10
453.8535259261
 20
153.6140076722
 30
0.0
 40
0.1000000000000001
100
AcDbArc
 50
180.0
 51
270.0
  0
ARC
  5
45D
330
359
100
AcDbEntity
  8
ADJUSTER_001_SEP
  6
CONTINUOUS
 62
     7
100
AcDbCircle
 10
457.5035259261
 20
153.6140076722
 30
0.0
 40
0.1
100
AcDbArc
 50
270.0
 51
0.0
  0
LINE
  5
45E
330
359
100
AcDbEntity
  8
ADJUSTER_001_SEP
  6
CONTINUOUS
 62
     7
100
AcDbLine
 10
457.6035259261
 20
154.4140076722
 30
0.0
 11
457.6035259261
 21
154.5140076722
 31
0.0
  0
LINE
  5
45F
330
359
100
AcDbEntity
  8
ADJUSTER_001_SEP
  6
CONTINUOUS
 62
     7
100
AcDbLine
 10
453.7535259261
 20
154.5140076722
 30
0.0
 11
453.7535259261
 21
154.4140076722
 31
0.0
  0
LINE
  5
461
330
359
100
AcDbEntity
  8
TENTOUBOUSHIKANA
  6
CONTINUOUS
 62
     7
100
AcDbLine
 10
453.1285259261
 20
164.3440076722
 30
0.0
 11
453.1285259261
 21
161.7440076722
 31
0.0
  0
LINE
  5
462
330
359
100
AcDbEntity
  8
TENTOUBOUSHIKANA
  6
CONTINUOUS
 62
     7
100
AcDbLine
 10
453.5785259261
 20
164.3440076722
 30
0.0
 11
453.5785259261
 21
161.7440076722
 31
0.0
  0
LINE
  5
463
330
359
100
AcDbEntity
  8
TENTOUBOUSHIKANA
  6
CONTINUOUS
 62
     7
100
AcDbLine
 10
453.5785259261
 20
161.5440076722
 30
0.0
 11
453.1285259261
 21
161.5440076722
 31
0.0
  0
LINE
  5
464
330
359
100
AcDbEntity
  8
TENTOUBOUSHIKANA
  6
CONTINUOUS
 62
     7
100
AcDbLine
 10
453.5785259261
 20
161.7440076722
 30
0.0
 11
453.5785259261
 21
161.5440076722
 31
0.0
  0
LINE
  5
465
330
359
100
AcDbEntity
  8
TENTOUBOUSHIKANA
  6
CONTINUOUS
 62
     7
100
AcDbLine
 10
453.1285259261
 20
161.5440076722
 30
0.0
 11
453.1285259261
 21
161.7440076722
 31
0.0
  0
LINE
  5
466
330
359
100
AcDbEntity
  8
HIRAZAGANE_M8_00
  6
CONTINUOUS
 62
     7
100
AcDbLine
 10
454.3885259261
 20
162.3940076722
 30
0.0
 11
454.3885259261
 21
164.1940076722
 31
0.0
  0
LINE
  5
467
330
359
100
AcDbEntity
  8
HIRAZAGANE_M8_00
  6
CONTINUOUS
 62
     7
100
AcDbLine
 10
454.2285259261
 20
162.3940076722
 30
0.0
 11
454.3885259261
 21
162.3940076722
 31
0.0
  0
LINE
  5
468
330
359
100
AcDbEntity
  8
HIRAZAGANE_M8_00
  6
CONTINUOUS
 62
     7
100
AcDbLine
 10
454.3885259261
 20
164.1940076722
 30
0.0
 11
454.2285259261
 21
164.1940076722
 31
0.0
  0
LINE
  5
46A
330
359
100
AcDbEntity
  8
UNATTO_001_SEP-0
  6
CONTINUOUS
 62
     7
100
AcDbLine
 10
452.5185259261
 20
162.6440076722
 30
0.0
 11
452.5185259261
 21
162.7310911597
 31
0.0
  0
LINE
  5
46B
330
359
100
AcDbEntity
  8
UNATTO_001_SEP-0
  6
CONTINUOUS
 62
     7
100
AcDbLine
 10
452.5185259261
 20
163.9440076722
 30
0.0
 11
452.5185259261
 21
163.8569241846
 31
0.0
  0
LINE
  5
46C
330
359
100
AcDbEntity
  8
UNATTO_001_SEP-0
  6
CONTINUOUS
 62
     7
100
AcDbLine
 10
452.5185259261
 20
162.7310911597
 30
0.0
 11
452.5185259261
 21
163.2940076722
 31
0.0
  0
LINE
  5
46D
330
359
100
AcDbEntity
  8
UNATTO_001_SEP-0
  6
CONTINUOUS
 62
     7
100
AcDbLine
 10
452.5765815845
 20
163.6692853471
 30
0.0
 11
453.0704702678
 21
163.6692853471
 31
0.0
  0
LINE
  5
46E
330
359
100
AcDbEntity
  8
UNATTO_001_SEP-0
  6
CONTINUOUS
 62
     7
100
AcDbLine
 10
452.5765815845
 20
162.9187299972
 30
0.0
 11
453.0704702678
 21
162.9187299972
 31
0.0
  0
LINE
  5
46F
330
359
100
AcDbEntity
  8
UNATTO_001_SEP-0
  6
CONTINUOUS
 62
     7
100
AcDbLine
 10
452.5765815845
 20
162.5434523222
 30
0.0
 11
453.0704702678
 21
162.5434523222
 31
0.0
  0
LINE
  5
470
330
359
100
AcDbEntity
  8
UNATTO_001_SEP-0
  6
CONTINUOUS
 62
     7
100
AcDbLine
 10
452.5765815845
 20
164.0445630221
 30
0.0
 11
453.0704702678
 21
164.0445630221
 31
0.0
  0
LINE
  5
471
330
359
100
AcDbEntity
  8
UNATTO_001_SEP-0
  6
CONTINUOUS
 62
     7
100
AcDbLine
 10
452.5185259261
 20
163.8569241846
 30
0.0
 11
452.5185259261
 21
163.2940076722
 31
0.0
  0
SPLINE
  5
472
330
359
100
AcDbEntity
  8
UNATTO_001_SEP-0
  6
CONTINUOUS
 62
     7
100
AcDbSpline
210
0.0
220
0.0
230
1.0
 70
     8
 71
     3
 72
    10
 73
     6
 74
     0
 42
0.0000000262228226
 43
0.0000000001
 40
0.0
 40
0.0
 40
0.0
 40
0.0
 40
0.5
 40
0.5
 40
1.0
 40
1.0
 40
1.0
 40
1.0
 10
452.5185259261247
 20
163.2940076721675
 30
0.0
 10
452.5185259261247
 20
163.3574661105216
 30
0.0
 10
452.5239833916538
 20
163.420471194758
 30
0.0
 10
452.5441800594141
 20
163.5457103251859
 30
0.0
 10
452.5589497863938
 20
163.608207006896
 30
0.0
 10
452.5765815844848
 20
163.6692853471407
 30
0.0
  0
LINE
  5
473
330
359
100
AcDbEntity
  8
UNATTO_001_SEP-0
  6
CONTINUOUS
 62
     7
100
AcDbLine
 10
452.5765815845
 20
163.6692853471
 30
0.0
 11
452.5185259261
 21
163.8569241846
 31
0.0
  0
ARC
  5
474
330
359
100
AcDbEntity
  8
UNATTO_001_SEP-0
  6
CONTINUOUS
 62
     7
100
AcDbCircle
 10
452.885217399
 20
163.8462701084
 30
0.0
 40
0.3668462152415917
100
AcDbArc
 50
147.2799906267
 51
178.3357619053
  0
LINE
  5
475
330
359
100
AcDbEntity
  8
UNATTO_001_SEP-0
  6
CONTINUOUS
 62
     7
100
AcDbLine
 10
452.5765815845
 20
162.5434523222
 30
0.0
 11
452.5185259261
 21
162.7310911597
 31
0.0
  0
ARC
  5
476
330
359
100
AcDbEntity
  8
UNATTO_001_SEP-0
  6
CONTINUOUS
 62
     7
100
AcDbCircle
 10
452.885217399
 20
162.7204370835
 30
0.0
 40
0.3668462152415015
100
AcDbArc
 50
147.2799906267
 51
178.3357619053
  0
SPLINE
  5
477
330
359
100
AcDbEntity
  8
UNATTO_001_SEP-0
  6
CONTINUOUS
 62
     7
100
AcDbSpline
210
0.0
220
0.0
230
1.0
 70
     8
 71
     3
 72
    10
 73
     6
 74
     0
 42
0.0000000262228365
 43
0.0000000001
 40
0.0
 40
0.0
 40
0.0
 40
0.0
 40
0.4999999999999999
 40
0.4999999999999999
 40
1.0
 40
1.0
 40
1.0
 40
1.0
 10
452.5765815844848
 20
162.9187299971942
 30
0.0
 10
452.5590619079201
 20
162.9794199370788
 30
0.0
 10
452.5444778982802
 20
163.0408888207583
 30
0.0
 10
452.5241372580355
 20
163.166168826628
 30
0.0
 10
452.5185259261247
 20
163.230505873157
 30
0.0
 10
452.5185259261247
 20
163.2940076721675
 30
0.0
  0
LINE
  5
478
330
359
100
AcDbEntity
  8
UNATTO_001_SEP-0
  6
CONTINUOUS
 62
     7
100
AcDbLine
 10
453.0704702678
 20
164.0445630221
 30
0.0
 11
453.1285259261
 21
163.8569241846
 31
0.0
  0
ARC
  5
479
330
359
100
AcDbEntity
  8
UNATTO_001_SEP-0
  6
CONTINUOUS
 62
     7
100
AcDbCircle
 10
452.7618344532
 20
163.8675782608
 30
0.0
 40
0.3668462152418123
100
AcDbArc
 50
327.2799906267
 51
358.3357619053
  0
SPLINE
  5
47A
330
359
100
AcDbEntity
  8
UNATTO_001_SEP-0
  6
CONTINUOUS
 62
     7
100
AcDbSpline
210
0.0
220
0.0
230
1.0
 70
     8
 71
     3
 72
    10
 73
     6
 74
     0
 42
0.0000000262228226
 43
0.0000000001
 40
0.0
 40
0.0
 40
0.0
 40
0.0
 40
0.5
 40
0.5
 40
1.0
 40
1.0
 40
1.0
 40
1.0
 10
453.0704702677646
 20
163.6692853471407
 30
0.0
 10
453.0881020658557
 20
163.608207006896
 30
0.0
 10
453.1028717928353
 20
163.5457103251859
 30
0.0
 10
453.1230684605957
 20
163.420471194758
 30
0.0
 10
453.1285259261247
 20
163.3574661105216
 30
0.0
 10
453.1285259261247
 20
163.2940076721675
 30
0.0
  0
SPLINE
  5
47B
330
359
100
AcDbEntity
  8
UNATTO_001_SEP-0
  6
CONTINUOUS
 62
     7
100
AcDbSpline
210
0.0
220
0.0
230
1.0
 70
     8
 71
     3
 72
    10
 73
     6
 74
     0
 42
0.0000000262228365
 43
0.0000000001
 40
0.0
 40
0.0
 40
0.0
 40
0.0
 40
0.5
 40
0.5
 40
1.0
 40
1.0
 40
1.0
 40
1.0
 10
453.1285259261247
 20
163.2940076721675
 30
0.0
 10
453.1285259261247
 20
163.230505873157
 30
0.0
 10
453.122914594214
 20
163.166168826628
 30
0.0
 10
453.1025739539692
 20
163.0408888207583
 30
0.0
 10
453.0879899443294
 20
162.9794199370788
 30
0.0
 10
453.0704702677646
 20
162.9187299971942
 30
0.0
  0
LINE
  5
47C
330
359
100
AcDbEntity
  8
UNATTO_001_SEP-0
  6
CONTINUOUS
 62
     7
100
AcDbLine
 10
453.0704702678
 20
162.9187299972
 30
0.0
 11
453.1285259261
 21
162.7310911597
 31
0.0
  0
ARC
  5
47D
330
359
100
AcDbEntity
  8
UNATTO_001_SEP-0
  6
CONTINUOUS
 62
     7
100
AcDbCircle
 10
452.7618344532
 20
162.7417452359
 30
0.0
 40
0.3668462152416064
100
AcDbArc
 50
327.2799906267
 51
358.3357619053
  0
LINE
  5
47E
330
359
100
AcDbEntity
  8
UNATTO_001_SEP-0
  6
CONTINUOUS
 62
     7
100
AcDbLine
 10
452.5765815845
 20
164.0445630221
 30
0.0
 11
452.5185259261
 21
163.9440076722
 31
0.0
  0
LINE
  5
47F
330
359
100
AcDbEntity
  8
UNATTO_001_SEP-0
  6
CONTINUOUS
 62
     7
100
AcDbLine
 10
452.5185259261
 20
162.6440076722
 30
0.0
 11
452.5765815845
 21
162.5434523222
 31
0.0
  0
LINE
  5
480
330
359
100
AcDbEntity
  8
UNATTO_001_SEP-0
  6
CONTINUOUS
 62
     7
100
AcDbLine
 10
453.1285259261
 20
163.9440076722
 30
0.0
 11
453.0704702678
 21
164.0445630221
 31
0.0
  0
LINE
  5
481
330
359
100
AcDbEntity
  8
UNATTO_001_SEP-0
  6
CONTINUOUS
 62
     7
100
AcDbLine
 10
453.0704702678
 20
162.5434523222
 30
0.0
 11
453.1285259261
 21
162.6440076722
 31
0.0
  0
LINE
  5
482
330
359
100
AcDbEntity
  8
UNATTO_001_SEP-0
  6
CONTINUOUS
 62
     7
100
AcDbLine
 10
452.5185259261
 20
163.9440076722
 30
0.0
 11
452.4735259261
 21
163.9440076722
 31
0.0
  0
LINE
  5
483
330
359
100
AcDbEntity
  8
UNATTO_001_SEP-0
  6
CONTINUOUS
 62
     7
100
AcDbLine
 10
452.4735259261
 20
162.6440076722
 30
0.0
 11
452.5185259261
 21
162.6440076722
 31
0.0
  0
ARC
  5
484
330
359
100
AcDbEntity
  8
UNATTO_001_SEP-0
  6
CONTINUOUS
 62
     7
100
AcDbCircle
 10
452.4735259261
 20
162.7190076722
 30
0.0
 40
0.0749999999999917
100
AcDbArc
 50
180.0
 51
270.0
  0
ARC
  5
485
330
359
100
AcDbEntity
  8
UNATTO_001_SEP-0
  6
CONTINUOUS
 62
     7
100
AcDbCircle
 10
452.4735259261
 20
163.8690076722
 30
0.0
 40
0.0749999999999987
100
AcDbArc
 50
90.0
 51
180.0
  0
LINE
  5
486
330
359
100
AcDbEntity
  8
UNATTO_001_SEP-0
  6
CONTINUOUS
 62
     7
100
AcDbLine
 10
452.3985259261
 20
163.8690076722
 30
0.0
 11
452.3985259261
 21
162.7190076722
 31
0.0
  0
LINE
  5
488
330
359
100
AcDbEntity
  8
SARABANE_001_SEP
  6
CONTINUOUS
 62
     7
100
AcDbLine
 10
454.4781581097
 20
162.4940076722
 30
0.0
 11
454.4781581097
 21
164.0940076722
 31
0.0
  0
LINE
  5
489
330
359
100
AcDbEntity
  8
SARABANE_001_SEP
  6
CONTINUOUS
 62
     7
100
AcDbLine
 10
454.4781581097
 20
162.4940076722
 30
0.0
 11
454.5053641223
 21
162.7940076722
 31
0.0
  0
LINE
  5
48A
330
359
100
AcDbEntity
  8
SARABANE_001_SEP
  6
CONTINUOUS
 62
     7
100
AcDbLine
 10
454.5053641223
 20
163.7940076722
 30
0.0
 11
454.4781581097
 21
164.0940076722
 31
0.0
  0
LINE
  5
48B
330
359
100
AcDbEntity
  8
SARABANE_001_SEP
  6
CONTINUOUS
 62
     7
100
AcDbLine
 10
454.4781581097
 20
164.0940076722
 30
0.0
 11
454.3885259261
 21
164.0858792244
 31
0.0
  0
LINE
  5
48C
330
359
100
AcDbEntity
  8
SARABANE_001_SEP
  6
CONTINUOUS
 62
     7
100
AcDbLine
 10
454.3885259261
 20
162.5021361199
 30
0.0
 11
454.4781581097
 21
162.4940076722
 31
0.0
  0
LINE
  5
48E
330
359
100
AcDbEntity
  8
ROKKAKU_ANATSUKI
  6
CONTINUOUS
 62
     7
100
AcDbLine
 10
454.6135259261
 20
164.1940076722
 30
0.0
 11
454.6135259261
 21
162.3940076722
 31
0.0
  0
LINE
  5
48F
330
359
100
AcDbEntity
  8
ROKKAKU_ANATSUKI
  6
CONTINUOUS
 62
     7
100
AcDbLine
 10
455.1135259261
 20
163.7940076722
 30
0.0
 11
455.1135259261
 21
162.7940076722
 31
0.0
  0
LINE
  5
490
330
359
100
AcDbEntity
  8
ROKKAKU_ANATSUKI
  6
CONTINUOUS
 62
     7
100
AcDbLine
 10
452.0135259261
 20
163.7940076722
 30
0.0
 11
452.0135259261
 21
162.7940076722
 31
0.0
  0
LINE
  5
491
330
359
100
AcDbEntity
  8
ROKKAKU_ANATSUKI
  6
CONTINUOUS
 62
     7
100
AcDbLine
 10
454.5135259261
 20
164.1940076722
 30
0.0
 11
454.5135259261
 21
162.3940076722
 31
0.0
  0
ARC
  5
492
330
359
100
AcDbEntity
  8
ROKKAKU_ANATSUKI
  6
CONTINUOUS
 62
     7
100
AcDbCircle
 10
454.3035259261
 20
163.2940076722
 30
0.0
 40
0.9518928511129793
100
AcDbArc
 50
289.005984196
 51
328.3136323121
  0
ARC
  5
493
330
359
100
AcDbEntity
  8
ROKKAKU_ANATSUKI
  6
CONTINUOUS
 62
     7
100
AcDbCircle
 10
454.3035259261
 20
163.2940076722
 30
0.0
 40
0.951892851112981
100
AcDbArc
 50
31.6863676879
 51
70.994015804
  0
LINE
  5
494
330
359
100
AcDbEntity
  8
ROKKAKU_ANATSUKI
  6
CONTINUOUS
 62
     7
100
AcDbLine
 10
452.0135259261
 20
162.7940076722
 30
0.0
 11
452.3985259261
 21
162.7940076722
 31
0.0
  0
LINE
  5
495
330
359
100
AcDbEntity
  8
ROKKAKU_ANATSUKI
  6
CONTINUOUS
 62
     7
100
AcDbLine
 10
454.5053641223
 20
162.7940076722
 30
0.0
 11
454.5135259261
 21
162.7940076722
 31
0.0
  0
LINE
  5
496
330
359
100
AcDbEntity
  8
ROKKAKU_ANATSUKI
  6
CONTINUOUS
 62
     7
100
AcDbLine
 10
454.5135259261
 20
163.7940076722
 30
0.0
 11
454.5053641223
 21
163.7940076722
 31
0.0
  0
LINE
  5
497
330
359
100
AcDbEntity
  8
ROKKAKU_ANATSUKI
  6
CONTINUOUS
 62
     7
100
AcDbLine
 10
452.3985259261
 20
163.7940076722
 30
0.0
 11
452.0135259261
 21
163.7940076722
 31
0.0
  0
LINE
  5
498
330
359
100
AcDbEntity
  8
ROKKAKU_ANATSUKI
  6
CONTINUOUS
 62
     7
100
AcDbLine
 10
454.5135259261
 20
162.3940076722
 30
0.0
 11
454.6135259261
 21
162.3940076722
 31
0.0
  0
LINE
  5
499
330
359
100
AcDbEntity
  8
ROKKAKU_ANATSUKI
  6
CONTINUOUS
 62
     7
100
AcDbLine
 10
454.6135259261
 20
164.1940076722
 30
0.0
 11
454.5135259261
 21
164.1940076722
 31
0.0
  0
LINE
  5
49B
330
359
100
AcDbEntity
  8
DEKARU_LOGO_SYOU
  6
CONTINUOUS
 62
     7
100
AcDbLine
 10
456.6985259261
 20
165.6940076722
 30
0.0
 11
456.6785259261
 21
165.6940076722
 31
0.0
  0
LINE
  5
49C
330
359
100
AcDbEntity
  8
DEKARU_LOGO_SYOU
  6
CONTINUOUS
 62
     7
100
AcDbLine
 10
456.6985259261
 20
165.8440076722
 30
0.0
 11
456.6985259261
 21
167.5440076722
 31
0.0
  0
LINE
  5
49D
330
359
100
AcDbEntity
  8
DEKARU_LOGO_SYOU
  6
CONTINUOUS
 62
     7
100
AcDbLine
 10
456.6985259261
 20
167.6940076722
 30
0.0
 11
456.6985259261
 21
167.5440076722
 31
0.0
  0
LINE
  5
49E
330
359
100
AcDbEntity
  8
DEKARU_LOGO_SYOU
  6
CONTINUOUS
 62
     7
100
AcDbLine
 10
456.6985259261
 20
165.8440076722
 30
0.0
 11
456.6985259261
 21
165.6940076722
 31
0.0
  0
LINE
  5
49F
330
359
100
AcDbEntity
  8
DEKARU_LOGO_SYOU
  6
CONTINUOUS
 62
     7
100
AcDbLine
 10
456.6785259261
 20
167.6940076722
 30
0.0
 11
456.6985259261
 21
167.6940076722
 31
0.0
  0
LINE
  5
4A1
330
359
100
AcDbEntity
  8
CC_001_SEP-00047
  6
CONTINUOUS
 62
     7
100
AcDbLine
 10
453.5785259261
 20
162.1940076722
 30
0.0
 11
453.6785259261
 21
162.1940076722
 31
0.0
  0
LINE
  5
4A2
330
359
100
AcDbEntity
  8
CC_001_SEP-00047
  6
CONTINUOUS
 62
     7
100
AcDbLine
 10
454.2285259261
 20
164.3440076722
 30
0.0
 11
454.2285259261
 21
162.1940076722
 31
0.0
  0
LINE
  5
4A3
330
359
100
AcDbEntity
  8
CC_001_SEP-00047
  6
CONTINUOUS
 62
     7
100
AcDbLine
 10
454.1285259261
 20
162.1940076722
 30
0.0
 11
454.2285259261
 21
162.1940076722
 31
0.0
  0
LINE
  5
4A4
330
359
100
AcDbEntity
  8
TENNTOUBOUSHIKAN
  6
CONTINUOUS
 62
     7
100
AcDbLine
 10
457.2285259261
 20
155.9440076722
 30
0.0
 11
457.2285259261
 21
158.2346065954
 31
0.0
  0
LINE
  5
4A5
330
359
100
AcDbEntity
  8
TENNTOUBOUSHIKAN
  6
CONTINUOUS
 62
     7
100
AcDbLine
 10
457.6785259261
 20
155.9440076722
 30
0.0
 11
457.6785259261
 21
158.2346065954
 31
0.0
  0
ARC
  5
4A6
330
359
100
AcDbEntity
  8
TENNTOUBOUSHIKAN
  6
CONTINUOUS
 62
     7
100
AcDbCircle
 10
454.1285259261
 20
160.5440076722
 30
0.0
 40
0.4499999999999949
100
AcDbArc
 50
180.0
 51
240.0
  0
LINE
  5
4A7
330
359
100
AcDbEntity
  8
TENNTOUBOUSHIKAN
  6
CONTINUOUS
 62
     7
100
AcDbLine
 10
454.1285259261
 20
160.5440076722
 30
0.0
 11
457.4535259261
 21
158.6243180271
 31
0.0
  0
LINE
  5
4A8
330
359
100
AcDbEntity
  8
TENNTOUBOUSHIKAN
  6
CONTINUOUS
 62
     7
100
AcDbLine
 10
453.9035259261
 20
160.1542962405
 30
0.0
 11
457.2285259261
 21
158.2346065954
 31
0.0
  0
ARC
  5
4A9
330
359
100
AcDbEntity
  8
TENNTOUBOUSHIKAN
  6
CONTINUOUS
 62
     7
100
AcDbCircle
 10
457.2285259261
 20
158.2346065954
 30
0.0
 40
0.4500000000000003
100
AcDbArc
 50
0.0
 51
60.0
  0
ARC
  5
4AA
330
359
100
AcDbEntity
  8
TENNTOUBOUSHIKAN
  6
CONTINUOUS
 62
     7
100
AcDbCircle
 10
457.2285259261
 20
155.9440076722
 30
0.0
 40
0.4500000000000025
100
AcDbArc
 50
270.0
 51
0.0
  0
LINE
  5
4AB
330
359
100
AcDbEntity
  8
TENNTOUBOUSHIKAN
  6
CONTINUOUS
 62
     7
100
AcDbLine
 10
453.1285259261
 20
162.4940076722
 30
0.0
 11
452.5285259261
 21
162.4940076722
 31
0.0
  0
LINE
  5
4AC
330
359
100
AcDbEntity
  8
TENNTOUBOUSHIKAN
  6
CONTINUOUS
 62
     7
100
AcDbLine
 10
453.6785259261
 20
163.2940076722
 30
0.0
 11
453.6785259261
 21
160.5440076722
 31
0.0
  0
LINE
  5
4AD
330
359
100
AcDbEntity
  8
TENNTOUBOUSHIKAN
  6
CONTINUOUS
 62
     7
100
AcDbLine
 10
453.6785259261
 20
164.3440076722
 30
0.0
 11
453.6785259261
 21
163.2940076722
 31
0.0
  0
LINE
  5
4AE
330
359
100
AcDbEntity
  8
TENNTOUBOUSHIKAN
  6
CONTINUOUS
 62
     7
100
AcDbLine
 10
454.1285259261
 20
163.2940076722
 30
0.0
 11
454.1285259261
 21
160.5440076722
 31
0.0
  0
LINE
  5
4AF
330
359
100
AcDbEntity
  8
TENNTOUBOUSHIKAN
  6
CONTINUOUS
 62
     7
100
AcDbLine
 10
454.1285259261
 20
163.2940076722
 30
0.0
 11
454.1285259261
 21
164.3440076722
 31
0.0
  0
LINE
  5
4B0
330
359
100
AcDbEntity
  8
TENNTOUBOUSHIKAN
  6
CONTINUOUS
 62
     7
100
AcDbLine
 10
452.5285259261
 20
160.9940076722
 30
0.0
 11
453.6785259261
 21
160.9940076722
 31
0.0
  0
LINE
  5
4B1
330
359
100
AcDbEntity
  8
TENNTOUBOUSHIKAN
  6
CONTINUOUS
 62
     7
100
AcDbLine
 10
452.3285259261
 20
162.2940076722
 30
0.0
 11
452.3285259261
 21
161.1940076722
 31
0.0
  0
ARC
  5
4B2
330
359
100
AcDbEntity
  8
TENNTOUBOUSHIKAN
  6
CONTINUOUS
 62
     7
100
AcDbCircle
 10
452.5285259261
 20
162.2940076722
 30
0.0
 40
0.2000000000000002
100
AcDbArc
 50
90.0
 51
180.0
  0
ARC
  5
4B3
330
359
100
AcDbEntity
  8
TENNTOUBOUSHIKAN
  6
CONTINUOUS
 62
     7
100
AcDbCircle
 10
452.5285259261
 20
161.1940076722
 30
0.0
 40
0.2000000000000002
100
AcDbArc
 50
180.0
 51
270.0
  0
LINE
  5
4B4
330
359
100
AcDbEntity
  8
TENNTOUBOUSHIKAN
  6
CONTINUOUS
 62
     7
100
AcDbLine
 10
453.6785259261
 20
155.9440076722
 30
0.0
 11
453.6785259261
 21
155.4940076722
 31
0.0
  0
LINE
  5
4B5
330
359
100
AcDbEntity
  8
TENNTOUBOUSHIKAN
  6
CONTINUOUS
 62
     7
100
AcDbLine
 10
454.1785259261
 20
155.4940076722
 30
0.0
 11
457.2285259261
 21
155.4940076722
 31
0.0
  0
LINE
  5
4B6
330
359
100
AcDbEntity
  8
TENNTOUBOUSHIKAN
  6
CONTINUOUS
 62
     7
100
AcDbLine
 10
453.6785259261
 20
155.4940076722
 30
0.0
 11
454.1785259261
 21
155.4940076722
 31
0.0
  0
LINE
  5
4B7
330
359
100
AcDbEntity
  8
TENNTOUBOUSHIKAN
  6
CONTINUOUS
 62
     7
100
AcDbLine
 10
454.1785259261
 20
155.9440076722
 30
0.0
 11
457.2285259261
 21
155.9440076722
 31
0.0
  0
LINE
  5
4B8
330
359
100
AcDbEntity
  8
TENNTOUBOUSHIKAN
  6
CONTINUOUS
 62
     7
100
AcDbLine
 10
454.1785259261
 20
155.9440076722
 30
0.0
 11
453.6785259261
 21
155.9440076722
 31
0.0
  0
LINE
  5
4BA
330
359
100
AcDbEntity
  8
BASE_SIDE_COVER_
  6
CONTINUOUS
 62
     7
100
AcDbLine
 10
456.6785259261
 20
164.3440076722
 30
0.0
 11
456.6785259261
 21
168.9774899777
 31
0.0
  0
LINE
  5
4BB
330
359
100
AcDbEntity
  8
BASE_SIDE_COVER_
  6
CONTINUOUS
 62
     7
100
AcDbLine
 10
455.5732788313
 20
169.0464334123
 30
0.0
 11
456.3185259261
 21
169.0204088103
 31
0.0
  0
LINE
  5
4BC
330
359
100
AcDbEntity
  8
BASE_SIDE_COVER_
  6
CONTINUOUS
 62
     7
100
AcDbLine
 10
456.3185259261
 20
169.0299639276
 30
0.0
 11
456.3185259261
 21
169.0204088103
 31
0.0
  0
LINE
  5
4BD
330
359
100
AcDbEntity
  8
BASE_SIDE_COVER_
  6
CONTINUOUS
 62
     7
100
AcDbLine
 10
455.6985259261
 20
168.9774899777
 30
0.0
 11
455.5708712735
 21
168.9774899777
 31
0.0
  0
LINE
  5
4BE
330
359
100
AcDbEntity
  8
BASE_SIDE_COVER_
  6
CONTINUOUS
 62
     7
100
AcDbLine
 10
455.5708712735
 20
168.9774899777
 30
0.0
 11
455.5736120969
 21
169.0559768917
 31
0.0
  0
LINE
  5
4BF
330
359
100
AcDbEntity
  8
BASE_SIDE_COVER_
  6
CONTINUOUS
 62
     7
100
AcDbLine
 10
394.7220336003
 20
171.3410583647
 30
0.0
 11
416.8240528444
 21
170.5692388454
 31
0.0
  0
LINE
  5
4C0
330
359
100
AcDbEntity
  8
BASE_SIDE_COVER_
  6
CONTINUOUS
 62
     7
100
AcDbLine
 10
419.3396517043
 20
170.4813921975
 30
0.0
 11
455.5791960164
 21
169.215879424
 31
0.0
  0
LINE
  5
4C1
330
359
100
AcDbEntity
  8
BASE_SIDE_COVER_
  6
CONTINUOUS
 62
     7
100
AcDbLine
 10
455.5791960164
 20
169.215879424
 30
0.0
 11
455.5736120969
 21
169.0559768917
 31
0.0
  0
LINE
  5
4C2
330
359
100
AcDbEntity
  8
BASE_SIDE_COVER_
  6
CONTINUOUS
 62
     7
100
AcDbLine
 10
455.6985259261
 20
168.9774899777
 30
0.0
 11
456.6785259261
 21
168.9774899777
 31
0.0
  0
LINE
  5
4C3
330
359
100
AcDbEntity
  8
BASE_SIDE_COVER_
  6
CONTINUOUS
 62
     7
100
AcDbLine
 10
456.6785259261
 20
164.3440076722
 30
0.0
 11
455.6985259261
 21
164.3440076722
 31
0.0
  0
LINE
  5
4C4
330
359
100
AcDbEntity
  8
BASE_SIDE_COVER_
  6
CONTINUOUS
 62
     7
100
AcDbLine
 10
456.679917654
 20
169.0173438504
 30
0.0
 11
456.6855015735
 21
169.1772463827
 31
0.0
  0
LINE
  5
4C5
330
359
100
AcDbEntity
  8
BASE_SIDE_COVER_
  6
CONTINUOUS
 62
     7
100
AcDbLine
 10
455.8859889119
 20
169.2051659801
 30
0.0
 11
455.5791960164
 21
169.215879424
 31
0.0
  0
LINE
  5
4C6
330
359
100
AcDbEntity
  8
BASE_SIDE_COVER_
  6
CONTINUOUS
 62
     7
100
AcDbLine
 10
456.6855015735
 20
169.1772463827
 30
0.0
 11
455.8859889119
 21
169.2051659801
 31
0.0
  0
LINE
  5
4C7
330
359
100
AcDbEntity
  8
BASE_SIDE_COVER_
  6
CONTINUOUS
 62
     7
100
AcDbLine
 10
455.8804049924
 20
169.0452634477
 30
0.0
 11
455.5736120969
 21
169.0559768917
 31
0.0
  0
LINE
  5
4C8
330
359
100
AcDbEntity
  8
BASE_SIDE_COVER_
  6
CONTINUOUS
 62
     7
100
AcDbLine
 10
455.8804049924
 20
169.0452634477
 30
0.0
 11
456.679917654
 21
169.0173438504
 31
0.0
  0
LINE
  5
4C9
330
359
100
AcDbEntity
  8
BASE_SIDE_COVER_
  6
CONTINUOUS
 62
     7
100
AcDbLine
 10
456.3185259261
 20
168.9774899777
 30
0.0
 11
456.3185259261
 21
169.0204088103
 31
0.0
  0
LINE
  5
4CA
330
359
100
AcDbEntity
  8
BASE_SIDE_COVER_
  6
CONTINUOUS
 62
     7
100
AcDbLine
 10
392.2684424307
 20
164.3440076722
 30
0.0
 11
455.6985259261
 21
164.3440076722
 31
0.0
  0
ARC
  5
4CB
330
359
100
AcDbEntity
  8
BASE_SIDE_COVER_
  6
CONTINUOUS
 62
     7
100
AcDbCircle
 10
392.2684424307
 20
164.5440076722
 30
0.0
 40
0.1999999999999988
100
AcDbArc
 50
212.3301023541
 51
270.0
  0
LINE
  5
4CC
330
359
100
AcDbEntity
  8
CASTER_BACK_001_
  6
CONTINUOUS
 62
     7
100
AcDbLine
 10
445.3563978523
 20
163.7140076722
 30
0.0
 11
446.1285259261
 21
163.7140076722
 31
0.0
  0
LINE
  5
4CD
330
359
100
AcDbEntity
  8
CASTER_BACK_001_
  6
CONTINUOUS
 62
     7
100
AcDbLine
 10
444.7006539999
 20
163.7140076722
 30
0.0
 11
443.9285259261
 21
163.7140076722
 31
0.0
  0
LINE
  5
4CE
330
359
100
AcDbEntity
  8
CASTER_BACK_001_
  6
CONTINUOUS
 62
     7
100
AcDbLine
 10
444.4475784242
 20
164.3440076722
 30
0.0
 11
444.4475784242
 21
163.8140076722
 31
0.0
  0
LINE
  5
4CF
330
359
100
AcDbEntity
  8
CASTER_BACK_001_
  6
CONTINUOUS
 62
     7
100
AcDbLine
 10
445.0285259261
 20
163.7140076722
 30
0.0
 11
444.7006539999
 21
163.7140076722
 31
0.0
  0
SPLINE
  5
4D0
330
359
100
AcDbEntity
  8
CASTER_BACK_001_
  6
CONTINUOUS
 62
     7
100
AcDbSpline
210
0.0
220
0.0
230
1.0
 70
     8
 71
     3
 72
    16
 73
    12
 74
     0
 42
0.0000000339078916
 43
0.0000000001
 40
0.0
 40
0.0
 40
0.0
 40
0.0
 40
0.2500000000000005
 40
0.2500000000000005
 40
0.5000000000000006
 40
0.5000000000000006
 40
0.7500000000000006
 40
0.7500000000000006
 40
0.8750000000000003
 40
0.8750000000000003
 40
1.0
 40
1.0
 40
1.0
 40
1.0
 10
444.7006539999096
 20
163.7140076721675
 30
0.0
 10
444.6762798803236
 20
163.7140076721675
 30
0.0
 10
444.6518917145723
 20
163.714775203374
 30
0.0
 10
444.6031100669709
 20
163.7190734897906
 30
0.0
 10
444.5789742623946
 20
163.7225400820547
 30
0.0
 10
444.5316353172342
 20
163.7342914809713
 30
0.0
 10
444.5079673082879
 20
163.7425544785418
 30
0.0
 10
444.4770405880645
 20
163.762308116515
 30
0.0
 10
444.4674242055648
 20
163.7702169045702
 30
0.0
 10
444.452571916655
 20
163.7897667992178
 30
0.0
 10
444.4475784241936
 20
163.8016957793077
 30
0.0
 10
444.4475784241936
 20
163.8140076721675
 30
0.0
  0
LINE
  5
4D1
330
359
100
AcDbEntity
  8
CASTER_BACK_001_
  6
CONTINUOUS
 62
     7
100
AcDbLine
 10
445.6094734281
 20
164.3440076722
 30
0.0
 11
445.6094734281
 21
163.8140076722
 31
0.0
  0
SPLINE
  5
4D2
330
359
100
AcDbEntity
  8
CASTER_BACK_001_
  6
CONTINUOUS
 62
     7
100
AcDbSpline
210
0.0
220
0.0
230
1.0
 70
     8
 71
     3
 72
    18
 73
    14
 74
     0
 42
0.0000000339376881
 43
0.0000000001
 40
0.0
 40
0.0
 40
0.0
 40
0.0
 40
0.1250000000000007
 40
0.1250000000000007
 40
0.2500000000000014
 40
0.2500000000000014
 40
0.3750000000000021
 40
0.3750000000000021
 40
0.5000000000000028
 40
0.5000000000000028
 40
0.7500000000000016
 40
0.7500000000000016
 40
1.0
 40
1.0
 40
1.0
 40
1.0
 10
445.6094734280558
 20
163.8140076721675
 30
0.0
 10
445.6094734280558
 20
163.8015267141925
 30
0.0
 10
445.6044714504222
 20
163.7896940364925
 30
0.0
 10
445.5893568529764
 20
163.769923207596
 30
0.0
 10
445.5797169721135
 20
163.7620732180067
 30
0.0
 10
445.5588856307443
 20
163.7488634415172
 30
0.0
 10
445.5478295943801
 20
163.7436306846777
 30
0.0
 10
445.5249578107685
 20
163.7347930270733
 30
0.0
 10
445.5130994962369
 20
163.7312157692922
 30
0.0
 10
445.4775388799305
 20
163.7224437997483
 30
0.0
 10
445.4535267033097
 20
163.719029360299
 30
0.0
 10
445.4051783939432
 20
163.7147844297357
 30
0.0
 10
445.3808166563695
 20
163.7140076721675
 30
0.0
 10
445.3563978523398
 20
163.7140076721675
 30
0.0
  0
LINE
  5
4D3
330
359
100
AcDbEntity
  8
CASTER_BACK_001_
  6
CONTINUOUS
 62
     7
100
AcDbLine
 10
445.3563978523
 20
163.7140076722
 30
0.0
 11
445.0285259261
 21
163.7140076722
 31
0.0
  0
ARC
  5
4D4
330
359
100
AcDbEntity
  8
CASTER_BACK_001_
  6
CONTINUOUS
 62
     7
100
AcDbCircle
 10
442.7103640536
 20
158.8554729791
 30
0.0
 40
4.707599243423746
100
AcDbArc
 50
62.5723646125
 51
74.7227838952
  0
ARC
  5
4D5
330
359
100
AcDbEntity
  8
CASTER_BACK_001_
  6
CONTINUOUS
 62
     7
100
AcDbCircle
 10
445.4052573096
 20
162.7897851623
 30
0.0
 40
0.1073842773616903
100
AcDbArc
 50
180.3714101981
 51
201.8381973544
  0
CIRCLE
  5
4D6
330
359
100
AcDbEntity
  8
CASTER_BACK_001_
  6
CONTINUOUS
 62
     7
100
AcDbCircle
 10
442.6285259261
 20
158.5140076722
 30
0.0
 40
5.000000000000001
  0
CIRCLE
  5
4D7
330
359
100
AcDbEntity
  8
CASTER_BACK_001_
  6
CONTINUOUS
 62
     7
100
AcDbCircle
 10
442.6285259261
 20
158.5140076722
 30
0.0
 40
4.2
  0
CIRCLE
  5
4D8
330
359
100
AcDbEntity
  8
CASTER_BACK_001_
  6
CONTINUOUS
 62
     7
100
AcDbCircle
 10
442.6285259261
 20
158.5140076722
 30
0.0
 40
1.75
  0
CIRCLE
  5
4D9
330
359
100
AcDbEntity
  8
CASTER_BACK_001_
  6
CONTINUOUS
 62
     7
100
AcDbCircle
 10
442.6285259261
 20
158.5140076722
 30
0.0
 40
2.6
  0
CIRCLE
  5
4DA
330
359
100
AcDbEntity
  8
CASTER_BACK_001_
  6
CONTINUOUS
 62
     7
100
AcDbCircle
 10
442.6285259261
 20
158.5140076722
 30
0.0
 40
3.5
  0
ARC
  5
4DB
330
359
100
AcDbEntity
  8
CASTER_BACK_001_
  6
CONTINUOUS
 62
     7
100
AcDbCircle
 10
446.1285259261
 20
163.8140076722
 30
0.0
 40
0.1000000000000001
100
AcDbArc
 50
270.0
 51
0.0
  0
ARC
  5
4DC
330
359
100
AcDbEntity
  8
CASTER_BACK_001_
  6
CONTINUOUS
 62
     7
100
AcDbCircle
 10
443.9285259261
 20
163.8140076722
 30
0.0
 40
0.1000000000000001
100
AcDbArc
 50
180.0
 51
270.0
  0
LINE
  5
4DD
330
359
100
AcDbEntity
  8
CASTER_BACK_001_
  6
CONTINUOUS
 62
     7
100
AcDbLine
 10
443.8285259261
 20
164.3440076722
 30
0.0
 11
443.8285259261
 21
163.8140076722
 31
0.0
  0
LINE
  5
4DE
330
359
100
AcDbEntity
  8
CASTER_BACK_001_
  6
CONTINUOUS
 62
     7
100
AcDbLine
 10
446.2285259261
 20
163.8140076722
 30
0.0
 11
446.2285259261
 21
164.3440076722
 31
0.0
  0
ARC
  5
4DF
330
359
100
AcDbEntity
  8
CASTER_BACK_001_
  6
CONTINUOUS
 62
     7
100
AcDbCircle
 10
446.2770997246
 20
162.0034842615
 30
0.0
 40
0.0486143239104571
100
AcDbArc
 50
184.2348202263
 51
223.3569099465
  0
LINE
  5
4E0
330
359
100
AcDbEntity
  8
CASTER_BACK_001_
  6
CONTINUOUS
 62
     7
100
AcDbLine
 10
446.228493694
 20
161.9998682422
 30
0.0
 11
446.0785259261
 21
163.7140076722
 31
0.0
  0
LINE
  5
4E1
330
359
100
AcDbEntity
  8
CASTER_BACK_001_
  6
CONTINUOUS
 62
     7
100
AcDbLine
 10
443.9785259261
 20
163.7140076722
 30
0.0
 11
443.9507665415
 21
163.3967164545
 31
0.0
  0
LINE
  5
4E2
330
359
100
AcDbEntity
  8
CASTER_FRONT_STO
  6
CONTINUOUS
 62
     7
100
AcDbLine
 10
390.6285259261
 20
163.7140076722
 30
0.0
 11
389.8563978523
 21
163.7140076722
 31
0.0
  0
LINE
  5
4E3
330
359
100
AcDbEntity
  8
CASTER_FRONT_STO
  6
CONTINUOUS
 62
     7
100
AcDbLine
 10
389.2006539999
 20
163.7140076722
 30
0.0
 11
388.4285259261
 21
163.7140076722
 31
0.0
  0
LINE
  5
4E4
330
359
100
AcDbEntity
  8
CASTER_FRONT_STO
  6
CONTINUOUS
 62
     7
100
AcDbLine
 10
388.9475784242
 20
164.3440076722
 30
0.0
 11
388.9475784242
 21
163.8140076722
 31
0.0
  0
LINE
  5
4E5
330
359
100
AcDbEntity
  8
CASTER_FRONT_STO
  6
CONTINUOUS
 62
     7
100
AcDbLine
 10
389.5285259261
 20
163.7140076722
 30
0.0
 11
389.2006539999
 21
163.7140076722
 31
0.0
  0
SPLINE
  5
4E6
330
359
100
AcDbEntity
  8
CASTER_FRONT_STO
  6
CONTINUOUS
 62
     7
100
AcDbSpline
210
0.0
220
0.0
230
1.0
 70
     8
 71
     3
 72
    16
 73
    12
 74
     0
 42
0.0000000339078916
 43
0.0000000001
 40
0.0
 40
0.0
 40
0.0
 40
0.0
 40
0.2500000000000005
 40
0.2500000000000005
 40
0.5000000000000006
 40
0.5000000000000006
 40
0.7500000000000006
 40
0.7500000000000006
 40
0.8750000000000003
 40
0.8750000000000003
 40
1.0
 40
1.0
 40
1.0
 40
1.0
 10
389.2006539999096
 20
163.7140076721675
 30
0.0
 10
389.1762798803236
 20
163.7140076721675
 30
0.0
 10
389.1518917145724
 20
163.714775203374
 30
0.0
 10
389.1031100669709
 20
163.7190734897906
 30
0.0
 10
389.0789742623946
 20
163.7225400820547
 30
0.0
 10
389.0316353172343
 20
163.7342914809713
 30
0.0
 10
389.0079673082879
 20
163.7425544785418
 30
0.0
 10
388.9770405880645
 20
163.762308116515
 30
0.0
 10
388.9674242055648
 20
163.7702169045702
 30
0.0
 10
388.952571916655
 20
163.7897667992178
 30
0.0
 10
388.9475784241936
 20
163.8016957793077
 30
0.0
 10
388.9475784241936
 20
163.8140076721675
 30
0.0
  0
LINE
  5
4E7
330
359
100
AcDbEntity
  8
CASTER_FRONT_STO
  6
CONTINUOUS
 62
     7
100
AcDbLine
 10
390.1094734281
 20
164.3440076722
 30
0.0
 11
390.1094734281
 21
163.8140076722
 31
0.0
  0
SPLINE
  5
4E8
330
359
100
AcDbEntity
  8
CASTER_FRONT_STO
  6
CONTINUOUS
 62
     7
100
AcDbSpline
210
0.0
220
0.0
230
1.0
 70
     8
 71
     3
 72
    18
 73
    14
 74
     0
 42
0.0000000339376881
 43
0.0000000001
 40
0.0
 40
0.0
 40
0.0
 40
0.0
 40
0.1250000000000007
 40
0.1250000000000007
 40
0.2500000000000014
 40
0.2500000000000014
 40
0.3750000000000021
 40
0.3750000000000021
 40
0.5000000000000028
 40
0.5000000000000028
 40
0.7500000000000016
 40
0.7500000000000016
 40
1.0
 40
1.0
 40
1.0
 40
1.0
 10
390.1094734280559
 20
163.8140076721675
 30
0.0
 10
390.1094734280559
 20
163.8015267141925
 30
0.0
 10
390.1044714504222
 20
163.7896940364925
 30
0.0
 10
390.0893568529764
 20
163.769923207596
 30
0.0
 10
390.0797169721135
 20
163.7620732180067
 30
0.0
 10
390.0588856307443
 20
163.7488634415172
 30
0.0
 10
390.0478295943801
 20
163.7436306846777
 30
0.0
 10
390.0249578107685
 20
163.7347930270733
 30
0.0
 10
390.0130994962369
 20
163.7312157692922
 30
0.0
 10
389.9775388799305
 20
163.7224437997483
 30
0.0
 10
389.9535267033098
 20
163.719029360299
 30
0.0
 10
389.9051783939432
 20
163.7147844297357
 30
0.0
 10
389.8808166563695
 20
163.7140076721675
 30
0.0
 10
389.8563978523399
 20
163.7140076721675
 30
0.0
  0
LINE
  5
4E9
330
359
100
AcDbEntity
  8
CASTER_FRONT_STO
  6
CONTINUOUS
 62
     7
100
AcDbLine
 10
389.8563978523
 20
163.7140076722
 30
0.0
 11
389.5285259261
 21
163.7140076722
 31
0.0
  0
ARC
  5
4EA
330
359
100
AcDbEntity
  8
CASTER_FRONT_STO
  6
CONTINUOUS
 62
     7
100
AcDbCircle
 10
387.2103640536
 20
158.8554729791
 30
0.0
 40
4.707599243424998
100
AcDbArc
 50
62.5723646125
 51
74.7227838952
  0
ARC
  5
4EB
330
359
100
AcDbEntity
  8
CASTER_FRONT_STO
  6
CONTINUOUS
 62
     7
100
AcDbCircle
 10
389.9052573096
 20
162.7897851623
 30
0.0
 40
0.1073842773614241
100
AcDbArc
 50
180.3714101981
 51
201.8381973544
  0
LINE
  5
4EC
330
359
100
AcDbEntity
  8
CASTER_FRONT_STO
  6
CONTINUOUS
 62
     7
100
AcDbLine
 10
383.8838743902
 20
162.3808327968
 30
0.0
 11
383.9145878777
 21
162.3442298878
 31
0.0
  0
LINE
  5
4ED
330
359
100
AcDbEntity
  8
CASTER_FRONT_STO
  6
CONTINUOUS
 62
     7
100
AcDbLine
 10
383.0327657047
 20
161.3818898539
 30
0.0
 11
382.4904249963
 21
161.7616409062
 31
0.0
  0
CIRCLE
  5
4EE
330
359
100
AcDbEntity
  8
CASTER_FRONT_STO
  6
CONTINUOUS
 62
     7
100
AcDbCircle
 10
387.1285259261
 20
158.5140076722
 30
0.0
 40
5.000000000000001
  0
CIRCLE
  5
4EF
330
359
100
AcDbEntity
  8
CASTER_FRONT_STO
  6
CONTINUOUS
 62
     7
100
AcDbCircle
 10
387.1285259261
 20
158.5140076722
 30
0.0
 40
4.2
  0
CIRCLE
  5
4F0
330
359
100
AcDbEntity
  8
CASTER_FRONT_STO
  6
CONTINUOUS
 62
     7
100
AcDbCircle
 10
387.1285259261
 20
158.5140076722
 30
0.0
 40
1.75
  0
ARC
  5
4F1
330
359
100
AcDbEntity
  8
CASTER_FRONT_STO
  6
CONTINUOUS
 62
     7
100
AcDbCircle
 10
382.0891842359
 20
162.551588581
 30
0.0
 40
1.265258337346739
100
AcDbArc
 50
210.4196219935
 51
212.9231163913
  0
ARC
  5
4F2
330
359
100
AcDbEntity
  8
CASTER_FRONT_STO
  6
CONTINUOUS
 62
     7
100
AcDbCircle
 10
381.2425259261
 20
161.7370076722
 30
0.0
 40
0.3000000000000089
100
AcDbArc
 50
144.5626391798
 51
209.1206842739
  0
ARC
  5
4F3
330
359
100
AcDbEntity
  8
CASTER_FRONT_STO
  6
CONTINUOUS
 62
     7
100
AcDbCircle
 10
381.961988185
 20
160.9884798419
 30
0.0
 40
1.151724240919975
100
AcDbArc
 50
145.5574518532
 51
148.455744221
  0
ARC
  5
4F4
330
359
100
AcDbEntity
  8
CASTER_FRONT_STO
  6
CONTINUOUS
 62
     7
100
AcDbCircle
 10
381.1805259261
 20
166.5870076722
 30
0.0
 40
5.0
100
AcDbArc
 50
267.7066514726
 51
308.575164362
  0
ARC
  5
4F5
330
359
100
AcDbEntity
  8
CASTER_FRONT_STO
  6
CONTINUOUS
 62
     7
100
AcDbCircle
 10
383.8624536091
 20
161.610629395
 30
0.0
 40
1.152950643870021
100
AcDbArc
 50
67.7922479306
 51
70.6863652148
  0
ARC
  5
4F6
330
359
100
AcDbEntity
  8
CASTER_FRONT_STO
  6
CONTINUOUS
 62
     7
100
AcDbCircle
 10
382.8560092334
 20
162.8062890605
 30
0.0
 40
1.248088076960901
100
AcDbArc
 50
2.8920850776
 51
5.4378478996
  0
ARC
  5
4F7
330
359
100
AcDbEntity
  8
CASTER_FRONT_STO
  6
CONTINUOUS
 62
     7
100
AcDbCircle
 10
380.1145259261
 20
169.8620076722
 30
0.0
 40
8.0
100
AcDbArc
 50
276.3410768229
 51
299.8673929845
  0
ARC
  5
4F8
330
359
100
AcDbEntity
  8
CASTER_FRONT_STO
  6
CONTINUOUS
 62
     7
100
AcDbCircle
 10
384.0005259261
 20
162.6410076722
 30
0.0
 40
0.299999999999997
100
AcDbArc
 50
7.0933440235
 51
70.9426206807
  0
CIRCLE
  5
4F9
330
359
100
AcDbEntity
  8
CASTER_FRONT_STO
  6
CONTINUOUS
 62
     7
100
AcDbCircle
 10
387.1285259261
 20
158.5140076722
 30
0.0
 40
2.6
  0
CIRCLE
  5
4FA
330
359
100
AcDbEntity
  8
CASTER_FRONT_STO
  6
CONTINUOUS
 62
     7
100
AcDbCircle
 10
387.1285259261
 20
158.5140076722
 30
0.0
 40
3.5
  0
ARC
  5
4FB
330
359
100
AcDbEntity
  8
CASTER_FRONT_STO
  6
CONTINUOUS
 62
     7
100
AcDbCircle
 10
390.6285259261
 20
163.8140076722
 30
0.0
 40
0.1000000000000001
100
AcDbArc
 50
270.0
 51
0.0
  0
ARC
  5
4FC
330
359
100
AcDbEntity
  8
CASTER_FRONT_STO
  6
CONTINUOUS
 62
     7
100
AcDbCircle
 10
388.4285259261
 20
163.8140076722
 30
0.0
 40
0.1000000000000001
100
AcDbArc
 50
180.0
 51
270.0
  0
LINE
  5
4FD
330
359
100
AcDbEntity
  8
CASTER_FRONT_STO
  6
CONTINUOUS
 62
     7
100
AcDbLine
 10
388.3285259261
 20
164.3440076722
 30
0.0
 11
388.3285259261
 21
163.8140076722
 31
0.0
  0
LINE
  5
4FE
330
359
100
AcDbEntity
  8
CASTER_FRONT_STO
  6
CONTINUOUS
 62
     7
100
AcDbLine
 10
390.7285259261
 20
163.8140076722
 30
0.0
 11
390.7285259261
 21
164.3440076722
 31
0.0
  0
ARC
  5
4FF
330
359
100
AcDbEntity
  8
CASTER_FRONT_STO
  6
CONTINUOUS
 62
     7
100
AcDbCircle
 10
390.7770997246
 20
162.0034842615
 30
0.0
 40
0.0486143239108753
100
AcDbArc
 50
184.2348202264
 51
223.3569099463
  0
LINE
  5
500
330
359
100
AcDbEntity
  8
CASTER_FRONT_STO
  6
CONTINUOUS
 62
     7
100
AcDbLine
 10
390.728493694
 20
161.9998682422
 30
0.0
 11
390.5785259261
 21
163.7140076722
 31
0.0
  0
LINE
  5
501
330
359
100
AcDbEntity
  8
CASTER_FRONT_STO
  6
CONTINUOUS
 62
     7
100
AcDbLine
 10
388.4785259261
 20
163.7140076722
 30
0.0
 11
388.4507665415
 21
163.3967164545
 31
0.0
  0
LINE
  5
503
330
359
100
AcDbEntity
  8
BLACKET_RIGHT_00
  6
CONTINUOUS
 62
     7
100
AcDbLine
 10
417.3185259261
 20
288.5140076722
 30
0.0
 11
417.3685259261
 21
288.5140076722
 31
0.0
  0
LINE
  5
504
330
359
100
AcDbEntity
  8
BLACKET_RIGHT_00
  6
CONTINUOUS
 62
     7
100
AcDbLine
 10
417.3685259261
 20
288.5140076722
 30
0.0
 11
417.3685259261
 21
288.0140076722
 31
0.0
  0
LINE
  5
505
330
359
100
AcDbEntity
  8
BLACKET_RIGHT_00
  6
CONTINUOUS
 62
     7
100
AcDbLine
 10
417.3685259261
 20
288.0140076722
 30
0.0
 11
417.5431655124
 21
287.3622438631
 31
0.0
  0
LINE
  5
506
330
359
100
AcDbEntity
  8
BLACKET_RIGHT_00
  6
CONTINUOUS
 62
     7
100
AcDbLine
 10
414.2785259261
 20
260.5140076722
 30
0.0
 11
417.1185259261
 21
260.5140076722
 31
0.0
  0
LINE
  5
507
330
359
100
AcDbEntity
  8
BLACKET_RIGHT_00
  6
CONTINUOUS
 62
     7
100
AcDbLine
 10
414.1185259261
 20
260.5140076722
 30
0.0
 11
414.1185259261
 21
305.5140076722
 31
0.0
  0
LINE
  5
508
330
359
100
AcDbEntity
  8
BLACKET_RIGHT_00
  6
CONTINUOUS
 62
     7
100
AcDbLine
 10
414.1185259261
 20
305.5140076722
 30
0.0
 11
414.2785259261
 21
305.5140076722
 31
0.0
  0
LINE
  5
509
330
359
100
AcDbEntity
  8
BLACKET_RIGHT_00
  6
CONTINUOUS
 62
     7
100
AcDbLine
 10
414.2785259261
 20
260.5140076722
 30
0.0
 11
414.1185259261
 21
260.5140076722
 31
0.0
  0
LINE
  5
50A
330
359
100
AcDbEntity
  8
BLACKET_RIGHT_00
  6
CONTINUOUS
 62
     7
100
AcDbLine
 10
419.4014888393
 20
293.2618232809
 30
0.0
 11
416.2178253453
 21
305.1434171947
 31
0.0
  0
LINE
  5
50B
330
359
100
AcDbEntity
  8
BLACKET_RIGHT_00
  6
CONTINUOUS
 62
     7
100
AcDbLine
 10
415.7348624321
 20
305.5140076722
 30
0.0
 11
414.2785259261
 21
305.5140076722
 31
0.0
  0
LINE
  5
50C
330
359
100
AcDbEntity
  8
BLACKET_RIGHT_00
  6
CONTINUOUS
 62
     7
100
AcDbLine
 10
419.4185259261
 20
287.7140076722
 30
0.0
 11
419.4185259261
 21
293.1324137584
 31
0.0
  0
ARC
  5
50D
330
359
100
AcDbEntity
  8
BLACKET_RIGHT_00
  6
CONTINUOUS
 62
     7
100
AcDbCircle
 10
418.9185259261
 20
287.7140076722
 30
0.0
 40
0.5000000000000004
100
AcDbArc
 50
270.0
 51
0.0
  0
ARC
  5
50E
330
359
100
AcDbEntity
  8
BLACKET_RIGHT_00
  6
CONTINUOUS
 62
     7
100
AcDbCircle
 10
415.7348624321
 20
305.0140076722
 30
0.0
 40
0.4999999999999894
100
AcDbArc
 50
15.0
 51
90.0
  0
ARC
  5
50F
330
359
100
AcDbEntity
  8
BLACKET_RIGHT_00
  6
CONTINUOUS
 62
     7
100
AcDbCircle
 10
418.9185259261
 20
293.1324137584
 30
0.0
 40
0.4999999999999933
100
AcDbArc
 50
0.0
 51
15.0
  0
LINE
  5
510
330
359
100
AcDbEntity
  8
BLACKET_RIGHT_00
  6
CONTINUOUS
 62
     7
100
AcDbLine
 10
417.1185259261
 20
286.5940076722
 30
0.0
 11
417.1185259261
 21
287.0140076722
 31
0.0
  0
LINE
  5
511
330
359
100
AcDbEntity
  8
BLACKET_RIGHT_00
  6
CONTINUOUS
 62
     7
100
AcDbLine
 10
417.7363506777
 20
287.2140076722
 30
0.0
 11
418.9185259261
 21
287.2140076722
 31
0.0
  0
ARC
  5
512
330
359
100
AcDbEntity
  8
BLACKET_RIGHT_00
  6
CONTINUOUS
 62
     7
100
AcDbCircle
 10
417.7363506777
 20
287.4140076722
 30
0.0
 40
0.2000000000000002
100
AcDbArc
 50
195.0
 51
270.0
  0
LINE
  5
514
330
359
100
AcDbEntity
  8
HOKYOUKANAGU_LEF
  6
CONTINUOUS
 62
     7
100
AcDbLine
 10
402.6649395631
 20
191.8284979515
 30
0.0
 11
402.5247157116
 21
191.8817639959
 31
0.0
  0
LINE
  5
515
330
359
100
AcDbEntity
  8
HOKYOUKANAGU_LEF
  6
CONTINUOUS
 62
     7
100
AcDbLine
 10
419.3396517043
 20
170.4813921975
 30
0.0
 11
416.8240528444
 21
170.5692388454
 31
0.0
  0
LINE
  5
516
330
359
100
AcDbEntity
  8
HOKYOUKANAGU_LEF
  6
CONTINUOUS
 62
     7
100
AcDbLine
 10
416.8240528444
 20
170.5692388454
 30
0.0
 11
416.8320797286
 21
170.7990987356
 31
0.0
  0
LINE
  5
517
330
359
100
AcDbEntity
  8
HOKYOUKANAGU_LEF
  6
CONTINUOUS
 62
     7
100
AcDbLine
 10
416.8320797286
 20
170.7990987356
 30
0.0
 11
416.6322015632
 21
170.8060786349
 31
0.0
  0
LINE
  5
518
330
359
100
AcDbEntity
  8
HOKYOUKANAGU_LEF
  6
CONTINUOUS
 62
     7
100
AcDbLine
 10
397.8709955706
 20
179.2083513202
 30
0.0
 11
403.1404253985
 21
171.2772218404
 31
0.0
  0
LINE
  5
519
330
359
100
AcDbEntity
  8
HOKYOUKANAGU_LEF
  6
CONTINUOUS
 62
     7
100
AcDbLine
 10
416.624174679
 20
170.5762187447
 30
0.0
 11
416.6322015632
 21
170.8060786349
 31
0.0
  0
LINE
  5
51A
330
359
100
AcDbEntity
  8
HOKYOUKANAGU_LEF
  6
CONTINUOUS
 62
     7
100
AcDbLine
 10
403.1404253985
 20
171.2772218404
 30
0.0
 11
403.1323985142
 21
171.0473619502
 31
0.0
  0
LINE
  5
51B
330
359
100
AcDbEntity
  8
HOKYOUKANAGU_LEF
  6
CONTINUOUS
 62
     7
100
AcDbLine
 10
403.6063741151
 20
194.5774975829
 30
0.0
 11
403.5292689364
 21
194.5262690246
 31
0.0
  0
LINE
  5
51C
330
359
100
AcDbEntity
  8
HOKYOUKANAGU_LEF
  6
CONTINUOUS
 62
     7
100
AcDbLine
 10
419.3396517043
 20
170.4813921975
 30
0.0
 11
419.5312235896
 21
170.6086722538
 31
0.0
  0
LINE
  5
51D
330
359
100
AcDbEntity
  8
HOKYOUKANAGU_LEF
  6
CONTINUOUS
 62
     7
100
AcDbLine
 10
419.5312235896
 20
170.6086722538
 30
0.0
 11
403.6063741151
 21
194.5774975829
 31
0.0
  0
LINE
  5
51E
330
359
100
AcDbEntity
  8
HOKYOUKANAGU_LEF
  6
CONTINUOUS
 62
     7
100
AcDbLine
 10
397.7307717191
 20
179.2616173645
 30
0.0
 11
397.8709955706
 21
179.2083513202
 31
0.0
  0
LINE
  5
520
330
359
100
AcDbEntity
  8
KURANPU_001_SEP-
  6
CONTINUOUS
 62
     7
100
AcDbLine
 10
436.2919297754
 20
274.8608712691
 30
0.0
 11
436.2145337256
 21
274.8902712704
 31
0.0
  0
LINE
  5
521
330
359
100
AcDbEntity
  8
KURANPU_001_SEP-
  6
CONTINUOUS
 62
     7
100
AcDbLine
 10
436.2145337256
 20
274.8902712704
 30
0.0
 11
435.0431454568
 21
275.3352399319
 31
0.0
  0
LINE
  5
522
330
359
100
AcDbEntity
  8
KURANPU_001_SEP-
  6
CONTINUOUS
 62
     7
100
AcDbLine
 10
435.0431454568
 20
275.3352399319
 30
0.0
 11
434.9599078743
 21
275.3668589233
 31
0.0
  0
LINE
  5
523
330
359
100
AcDbEntity
  8
KURANPU_001_SEP-
  6
CONTINUOUS
 62
     7
100
AcDbLine
 10
434.9599078743
 20
275.3668589233
 30
0.0
 11
434.8301037044
 21
275.416166902
 31
0.0
  0
LINE
  5
524
330
359
100
AcDbEntity
  8
KURANPU_001_SEP-
  6
CONTINUOUS
 62
     7
100
AcDbLine
 10
434.8301037044
 20
275.416166902
 30
0.0
 11
434.7772219784
 21
275.4362547853
 31
0.0
  0
LINE
  5
525
330
359
100
AcDbEntity
  8
KURANPU_001_SEP-
  6
CONTINUOUS
 62
     7
100
AcDbLine
 10
434.7772219784
 20
275.4362547853
 30
0.0
 11
434.5445233724
 21
275.5246486936
 31
0.0
  0
LINE
  5
526
330
359
100
AcDbEntity
  8
KURANPU_001_SEP-
  6
CONTINUOUS
 62
     7
100
AcDbLine
 10
434.5445233724
 20
275.5246486936
 30
0.0
 11
434.4698716739
 21
275.5530062137
 31
0.0
  0
LINE
  5
527
330
359
100
AcDbEntity
  8
KURANPU_001_SEP-
  6
CONTINUOUS
 62
     7
100
AcDbLine
 10
434.4698716739
 20
275.5530062137
 30
0.0
 11
434.4554571932
 21
275.5584817612
 31
0.0
  0
LINE
  5
528
330
359
100
AcDbEntity
  8
KURANPU_001_SEP-
  6
CONTINUOUS
 62
     7
100
AcDbLine
 10
434.4554571932
 20
275.5584817612
 30
0.0
 11
434.3292618162
 21
275.6064188881
 31
0.0
  0
LINE
  5
529
330
359
100
AcDbEntity
  8
KURANPU_001_SEP-
  6
CONTINUOUS
 62
     7
100
AcDbLine
 10
434.3292618162
 20
275.6064188881
 30
0.0
 11
434.3287958549
 21
275.6065958901
 31
0.0
  0
LINE
  5
52A
330
359
100
AcDbEntity
  8
KURANPU_001_SEP-
  6
CONTINUOUS
 62
     7
100
AcDbLine
 10
436.5165883271
 20
275.3959680221
 30
0.0
 11
436.3177284281
 21
274.8724656433
 31
0.0
  0
LINE
  5
52B
330
359
100
AcDbEntity
  8
KURANPU_001_SEP-
  6
CONTINUOUS
 62
     7
100
AcDbLine
 10
434.5435851894
 20
276.1454416071
 30
0.0
 11
434.3447252904
 21
275.6219392284
 31
0.0
  0
LINE
  5
52C
330
359
100
AcDbEntity
  8
KURANPU_001_SEP-
  6
CONTINUOUS
 62
     7
100
AcDbLine
 10
434.6469369743
 20
276.1061819469
 30
0.0
 11
434.4480770753
 21
275.5826795682
 31
0.0
  0
LINE
  5
52D
330
359
100
AcDbEntity
  8
KURANPU_001_SEP-
  6
CONTINUOUS
 62
     7
100
AcDbLine
 10
434.5418600324
 20
276.167491296
 30
0.0
 11
434.5423259936
 21
276.1673142939
 31
0.0
  0
LINE
  5
52E
330
359
100
AcDbEntity
  8
KURANPU_001_SEP-
  6
CONTINUOUS
 62
     7
100
AcDbLine
 10
434.5423259936
 20
276.1673142939
 30
0.0
 11
434.6685213706
 21
276.1193771671
 31
0.0
  0
LINE
  5
52F
330
359
100
AcDbEntity
  8
KURANPU_001_SEP-
  6
CONTINUOUS
 62
     7
100
AcDbLine
 10
434.6685213706
 20
276.1193771671
 30
0.0
 11
434.6829358513
 21
276.1139016195
 31
0.0
  0
LINE
  5
530
330
359
100
AcDbEntity
  8
KURANPU_001_SEP-
  6
CONTINUOUS
 62
     7
100
AcDbLine
 10
434.6829358513
 20
276.1139016195
 30
0.0
 11
434.7575875498
 21
276.0855440994
 31
0.0
  0
LINE
  5
531
330
359
100
AcDbEntity
  8
KURANPU_001_SEP-
  6
CONTINUOUS
 62
     7
100
AcDbLine
 10
434.7575875498
 20
276.0855440994
 30
0.0
 11
434.9902861558
 21
275.9971501911
 31
0.0
  0
LINE
  5
532
330
359
100
AcDbEntity
  8
KURANPU_001_SEP-
  6
CONTINUOUS
 62
     7
100
AcDbLine
 10
434.9902861558
 20
275.9971501911
 30
0.0
 11
435.0431678818
 21
275.9770623078
 31
0.0
  0
LINE
  5
533
330
359
100
AcDbEntity
  8
KURANPU_001_SEP-
  6
CONTINUOUS
 62
     7
100
AcDbLine
 10
435.0431678818
 20
275.9770623078
 30
0.0
 11
435.1729720518
 21
275.9277543292
 31
0.0
  0
LINE
  5
534
330
359
100
AcDbEntity
  8
KURANPU_001_SEP-
  6
CONTINUOUS
 62
     7
100
AcDbLine
 10
435.1729720518
 20
275.9277543292
 30
0.0
 11
435.2562096343
 21
275.8961353377
 31
0.0
  0
LINE
  5
535
330
359
100
AcDbEntity
  8
KURANPU_001_SEP-
  6
CONTINUOUS
 62
     7
100
AcDbLine
 10
435.2562096343
 20
275.8961353377
 30
0.0
 11
436.427597903
 21
275.4511666762
 31
0.0
  0
LINE
  5
536
330
359
100
AcDbEntity
  8
KURANPU_001_SEP-
  6
CONTINUOUS
 62
     7
100
AcDbLine
 10
436.427597903
 20
275.4511666762
 30
0.0
 11
436.5049939528
 21
275.4217666749
 31
0.0
  0
ARC
  5
537
330
359
100
AcDbEntity
  8
KURANPU_001_SEP-
  6
CONTINUOUS
 62
     7
100
AcDbCircle
 10
436.2990319146
 20
274.8795677826
 30
0.0
 40
0.0200000000000057
100
AcDbArc
 50
249.2000000001
 51
339.2000000001
  0
ELLIPSE
  5
538
330
359
100
AcDbEntity
  8
KURANPU_001_SEP-
  6
CONTINUOUS
 62
     7
100
AcDbEllipse
 10
434.3363639554
 20
275.6251154016
 30
0.0
 11
0.007102139248160722
 21
0.01869651352792712
 31
0.0
210
0.0
220
0.0
230
1.0
 40
0.4472135955
 41
3.141592653589793
 42
4.712388980385878
  0
ELLIPSE
  5
539
330
359
100
AcDbEntity
  8
KURANPU_001_SEP-
  6
CONTINUOUS
 62
     7
100
AcDbEllipse
 10
434.4625593324
 20
275.5771782748
 30
0.0
 11
0.007102139248138517
 21
0.01869651352790492
 31
0.0
210
0.0
220
0.0
230
1.0
 40
0.7745966692
 41
1.570796326795104
 42
3.14159265358863
  0
ARC
  5
53A
330
359
100
AcDbEntity
  8
KURANPU_001_SEP-
  6
CONTINUOUS
 62
     7
100
AcDbCircle
 10
436.4978918136
 20
275.4030701614
 30
0.0
 40
0.0199999999999992
100
AcDbArc
 50
339.1999999998
 51
69.2000000001
  0
ELLIPSE
  5
53B
330
359
100
AcDbEntity
  8
KURANPU_001_SEP-
  6
CONTINUOUS
 62
     7
100
AcDbEllipse
 10
434.6614192314
 20
276.1006806535
 30
0.0
 11
-0.007102139248171825
 21
-0.01869651352792712
 31
0.0
210
0.0
220
0.0
230
1.0
 40
0.7745966692
 41
3.141592653589793
 42
4.712388980385797
  0
ELLIPSE
  5
53C
330
359
100
AcDbEntity
  8
KURANPU_001_SEP-
  6
CONTINUOUS
 62
     7
100
AcDbEllipse
 10
434.5352238544
 20
276.1486177804
 30
0.0
 11
0.007102139248160722
 21
0.01869651352792712
 31
0.0
210
0.0
220
0.0
230
0.9999999999999999
 40
0.4472135955
 41
4.712388980383222
 42
6.28318530717307
  0
LINE
  5
53D
330
359
100
AcDbEntity
  8
KURANPU_001_SEP-
  6
CONTINUOUS
 62
     7
100
AcDbLine
 10
420.312116467
 20
232.7937158312
 30
0.0
 11
420.2347204172
 21
232.8231158326
 31
0.0
  0
LINE
  5
53E
330
359
100
AcDbEntity
  8
KURANPU_001_SEP-
  6
CONTINUOUS
 62
     7
100
AcDbLine
 10
420.2347204172
 20
232.8231158326
 30
0.0
 11
419.0633321484
 21
233.268084494
 31
0.0
  0
LINE
  5
53F
330
359
100
AcDbEntity
  8
KURANPU_001_SEP-
  6
CONTINUOUS
 62
     7
100
AcDbLine
 10
419.0633321484
 20
233.268084494
 30
0.0
 11
418.980094566
 21
233.2997034855
 31
0.0
  0
LINE
  5
540
330
359
100
AcDbEntity
  8
KURANPU_001_SEP-
  6
CONTINUOUS
 62
     7
100
AcDbLine
 10
418.980094566
 20
233.2997034855
 30
0.0
 11
418.850290396
 21
233.3490114642
 31
0.0
  0
LINE
  5
541
330
359
100
AcDbEntity
  8
KURANPU_001_SEP-
  6
CONTINUOUS
 62
     7
100
AcDbLine
 10
418.850290396
 20
233.3490114642
 30
0.0
 11
418.79740867
 21
233.3690993475
 31
0.0
  0
LINE
  5
542
330
359
100
AcDbEntity
  8
KURANPU_001_SEP-
  6
CONTINUOUS
 62
     7
100
AcDbLine
 10
418.79740867
 20
233.3690993475
 30
0.0
 11
418.564710064
 21
233.4574932558
 31
0.0
  0
LINE
  5
543
330
359
100
AcDbEntity
  8
KURANPU_001_SEP-
  6
CONTINUOUS
 62
     7
100
AcDbLine
 10
418.564710064
 20
233.4574932558
 30
0.0
 11
418.4900583655
 21
233.4858507758
 31
0.0
  0
LINE
  5
544
330
359
100
AcDbEntity
  8
KURANPU_001_SEP-
  6
CONTINUOUS
 62
     7
100
AcDbLine
 10
418.4900583655
 20
233.4858507758
 30
0.0
 11
418.4756438848
 21
233.4913263234
 31
0.0
  0
LINE
  5
545
330
359
100
AcDbEntity
  8
KURANPU_001_SEP-
  6
CONTINUOUS
 62
     7
100
AcDbLine
 10
418.4756438848
 20
233.4913263234
 30
0.0
 11
418.3494485078
 21
233.5392634502
 31
0.0
  0
LINE
  5
546
330
359
100
AcDbEntity
  8
KURANPU_001_SEP-
  6
CONTINUOUS
 62
     7
100
AcDbLine
 10
418.3494485078
 20
233.5392634502
 30
0.0
 11
418.3489825466
 21
233.5394404523
 31
0.0
  0
LINE
  5
547
330
359
100
AcDbEntity
  8
KURANPU_001_SEP-
  6
CONTINUOUS
 62
     7
100
AcDbLine
 10
420.5367750187
 20
233.3288125843
 30
0.0
 11
420.3379151198
 21
232.8053102055
 31
0.0
  0
LINE
  5
548
330
359
100
AcDbEntity
  8
KURANPU_001_SEP-
  6
CONTINUOUS
 62
     7
100
AcDbLine
 10
418.563771881
 20
234.0782861693
 30
0.0
 11
418.3649119821
 21
233.5547837905
 31
0.0
  0
LINE
  5
549
330
359
100
AcDbEntity
  8
KURANPU_001_SEP-
  6
CONTINUOUS
 62
     7
100
AcDbLine
 10
418.6671236659
 20
234.0390265091
 30
0.0
 11
418.468263767
 21
233.5155241303
 31
0.0
  0
LINE
  5
54A
330
359
100
AcDbEntity
  8
KURANPU_001_SEP-
  6
CONTINUOUS
 62
     7
100
AcDbLine
 10
418.562046724
 20
234.1003358581
 30
0.0
 11
418.5625126852
 21
234.1001588561
 31
0.0
  0
LINE
  5
54B
330
359
100
AcDbEntity
  8
KURANPU_001_SEP-
  6
CONTINUOUS
 62
     7
100
AcDbLine
 10
418.5625126852
 20
234.1001588561
 30
0.0
 11
418.6887080623
 21
234.0522217292
 31
0.0
  0
LINE
  5
54C
330
359
100
AcDbEntity
  8
KURANPU_001_SEP-
  6
CONTINUOUS
 62
     7
100
AcDbLine
 10
418.6887080623
 20
234.0522217292
 30
0.0
 11
418.703122543
 21
234.0467461817
 31
0.0
  0
LINE
  5
54D
330
359
100
AcDbEntity
  8
KURANPU_001_SEP-
  6
CONTINUOUS
 62
     7
100
AcDbLine
 10
418.703122543
 20
234.0467461817
 30
0.0
 11
418.7777742415
 21
234.0183886616
 31
0.0
  0
LINE
  5
54E
330
359
100
AcDbEntity
  8
KURANPU_001_SEP-
  6
CONTINUOUS
 62
     7
100
AcDbLine
 10
418.7777742415
 20
234.0183886616
 30
0.0
 11
419.0104728474
 21
233.9299947533
 31
0.0
  0
LINE
  5
54F
330
359
100
AcDbEntity
  8
KURANPU_001_SEP-
  6
CONTINUOUS
 62
     7
100
AcDbLine
 10
419.0104728474
 20
233.9299947533
 30
0.0
 11
419.0633545734
 21
233.90990687
 31
0.0
  0
LINE
  5
550
330
359
100
AcDbEntity
  8
KURANPU_001_SEP-
  6
CONTINUOUS
 62
     7
100
AcDbLine
 10
419.0633545734
 20
233.90990687
 30
0.0
 11
419.1931587434
 21
233.8605988913
 31
0.0
  0
LINE
  5
551
330
359
100
AcDbEntity
  8
KURANPU_001_SEP-
  6
CONTINUOUS
 62
     7
100
AcDbLine
 10
419.1931587434
 20
233.8605988913
 30
0.0
 11
419.2763963259
 21
233.8289798999
 31
0.0
  0
LINE
  5
552
330
359
100
AcDbEntity
  8
KURANPU_001_SEP-
  6
CONTINUOUS
 62
     7
100
AcDbLine
 10
419.2763963259
 20
233.8289798999
 30
0.0
 11
420.4477845947
 21
233.3840112384
 31
0.0
  0
LINE
  5
553
330
359
100
AcDbEntity
  8
KURANPU_001_SEP-
  6
CONTINUOUS
 62
     7
100
AcDbLine
 10
420.4477845947
 20
233.3840112384
 30
0.0
 11
420.5251806444
 21
233.3546112371
 31
0.0
  0
ARC
  5
554
330
359
100
AcDbEntity
  8
KURANPU_001_SEP-
  6
CONTINUOUS
 62
     7
100
AcDbCircle
 10
420.3192186062
 20
232.8124123448
 30
0.0
 40
0.0199999999999953
100
AcDbArc
 50
249.2
 51
339.2
  0
ELLIPSE
  5
555
330
359
100
AcDbEntity
  8
KURANPU_001_SEP-
  6
CONTINUOUS
 62
     7
100
AcDbEllipse
 10
418.356550647
 20
233.5579599638
 30
0.0
 11
0.007102139248171825
 21
0.01869651352790492
 31
0.0
210
0.0
220
0.0
230
1.0
 40
0.4472135955
 41
3.141592653591259
 42
4.712388980385278
  0
ELLIPSE
  5
556
330
359
100
AcDbEntity
  8
KURANPU_001_SEP-
  6
CONTINUOUS
 62
     7
100
AcDbEllipse
 10
418.4827460241
 20
233.5100228369
 30
0.0
 11
0.00710213924815517
 21
0.01869651352792711
 31
0.0
210
0.0
220
0.0
230
1.0
 40
0.7745966692
 41
1.570796326794073
 42
3.141592653589778
  0
ARC
  5
557
330
359
100
AcDbEntity
  8
KURANPU_001_SEP-
  6
CONTINUOUS
 62
     7
100
AcDbCircle
 10
420.5180785052
 20
233.3359147236
 30
0.0
 40
0.0200000000000005
100
AcDbArc
 50
339.2000000001
 51
69.2
  0
ELLIPSE
  5
558
330
359
100
AcDbEntity
  8
KURANPU_001_SEP-
  6
CONTINUOUS
 62
     7
100
AcDbEllipse
 10
418.681605923
 20
234.0335252157
 30
0.0
 11
-0.007102139248166272
 21
-0.01869651352791602
 31
0.0
210
0.0
220
0.0
230
0.9999999999999999
 40
0.7745966692
 41
3.141592653590702
 42
4.712388980383411
  0
ELLIPSE
  5
559
330
359
100
AcDbEntity
  8
KURANPU_001_SEP-
  6
CONTINUOUS
 62
     7
100
AcDbEllipse
 10
418.555410546
 20
234.0814623425
 30
0.0
 11
0.007102139248171825
 21
0.01869651352792712
 31
0.0
210
0.0
220
0.0
230
0.9999999999999999
 40
0.4472135955
 41
4.712388980383773
 42
6.283185307179586
  0
LINE
  5
55B
330
359
100
AcDbEntity
  8
DV2_ﾃﾞﾌｫﾙﾄ
  6
CONTINUOUS
 62
     7
100
AcDbLine
 10
398.7405259261
 20
239.1490076722
 30
0.0
 11
407.2985259261
 21
239.1490076722
 31
0.0
  0
LINE
  5
55C
330
359
100
AcDbEntity
  8
DV2_ﾃﾞﾌｫﾙﾄ
  6
CONTINUOUS
 62
     7
100
AcDbLine
 10
407.2985259261
 20
239.1490076722
 30
0.0
 11
407.2985259261
 21
327.8790076722
 31
0.0
  0
LINE
  5
55D
330
359
100
AcDbEntity
  8
DV2_ﾃﾞﾌｫﾙﾄ
  6
CONTINUOUS
 62
     7
100
AcDbLine
 10
407.2985259261
 20
327.8790076722
 30
0.0
 11
398.7405259261
 21
327.8790076722
 31
0.0
  0
LINE
  5
55E
330
359
100
AcDbEntity
  8
DV2_ﾃﾞﾌｫﾙﾄ
  6
CONTINUOUS
 62
     7
100
AcDbLine
 10
398.7405259261
 20
327.8790076722
 30
0.0
 11
398.7405259261
 21
239.1490076722
 31
0.0
  0
LINE
  5
55F
330
359
100
AcDbEntity
  8
DV2_ﾃﾞﾌｫﾙﾄ
  6
CONTINUOUS
 62
     7
100
AcDbLine
 10
407.2985259261
 20
251.2940076722
 30
0.0
 11
414.1185259261
 21
251.2940076722
 31
0.0
  0
LINE
  5
560
330
359
100
AcDbEntity
  8
DV2_ﾃﾞﾌｫﾙﾄ
  6
CONTINUOUS
 62
     7
100
AcDbLine
 10
414.1185259261
 20
251.2940076722
 30
0.0
 11
414.1185259261
 21
307.9020076722
 31
0.0
  0
LINE
  5
561
330
359
100
AcDbEntity
  8
DV2_ﾃﾞﾌｫﾙﾄ
  6
CONTINUOUS
 62
     7
100
AcDbLine
 10
414.1185259261
 20
307.9020076722
 30
0.0
 11
407.2985259261
 21
307.9020076722
 31
0.0
  0
POLYLINE
  5
563
330
359
100
AcDbEntity
  8
DV2_AUTO_-_HIDE
  6
CONTINUOUS
 62
     7
100
AcDb2dPolyline
 66
     1
 10
0.0
 20
0.0
 30
0.0
  0
VERTEX
  5
613
330
563
100
AcDbEntity
  8
DV2_AUTO_-_HIDE
  6
CONTINUOUS
 62
     7
100
AcDbVertex
100
AcDb2dVertex
 10
384.8346898703
 20
327.5590076803
 30
0.0
  0
VERTEX
  5
614
330
563
100
AcDbEntity
  8
DV2_AUTO_-_HIDE
  6
CONTINUOUS
 62
     7
100
AcDbVertex
100
AcDb2dVertex
 10
384.7813565383
 20
327.8790076722
 30
0.0
  0
VERTEX
  5
615
330
563
100
AcDbEntity
  8
DV2_AUTO_-_HIDE
  6
CONTINUOUS
 62
     7
100
AcDbVertex
100
AcDb2dVertex
 10
384.7280232063
 20
327.5590076803
 30
0.0
  0
SEQEND
  5
616
330
563
100
AcDbEntity
  8
DV2_AUTO_-_HIDE
  6
CONTINUOUS
 62
     7
  0
POLYLINE
  5
564
330
359
100
AcDbEntity
  8
DV2_AUTO_-_HIDE
  6
CONTINUOUS
 62
     7
100
AcDb2dPolyline
 66
     1
 10
0.0
 20
0.0
 30
0.0
  0
VERTEX
  5
617
330
564
100
AcDbEntity
  8
DV2_AUTO_-_HIDE
  6
CONTINUOUS
 62
     7
100
AcDbVertex
100
AcDb2dVertex
 10
384.8346898703
 20
239.4690062145
 30
0.0
  0
VERTEX
  5
618
330
564
100
AcDbEntity
  8
DV2_AUTO_-_HIDE
  6
CONTINUOUS
 62
     7
100
AcDbVertex
100
AcDb2dVertex
 10
384.7813565383
 20
239.1490062226
 30
0.0
  0
VERTEX
  5
619
330
564
100
AcDbEntity
  8
DV2_AUTO_-_HIDE
  6
CONTINUOUS
 62
     7
100
AcDbVertex
100
AcDb2dVertex
 10
384.7280232063
 20
239.4690062145
 30
0.0
  0
SEQEND
  5
61A
330
564
100
AcDbEntity
  8
DV2_AUTO_-_HIDE
  6
CONTINUOUS
 62
     7
  0
LINE
  5
565
330
359
100
AcDbEntity
  8
DV2_AUTO_-_HIDE
  6
CONTINUOUS
 62
     7
100
AcDbLine
 10
398.6125259294
 20
327.8790076722
 30
0.0
 11
384.6213565423
 21
327.8790076722
 31
0.0
  0
LINE
  5
566
330
359
100
AcDbEntity
  8
DV2_AUTO_-_HIDE
  6
CONTINUOUS
 62
     7
100
AcDbLine
 10
398.6125259294
 20
239.1490076722
 30
0.0
 11
384.6213565423
 21
239.1490076722
 31
0.0
  0
LINE
  5
567
330
359
100
AcDbEntity
  8
DV2_AUTO_-_HIDE
  6
CONTINUOUS
 62
     7
100
AcDbLine
 10
384.7813565383
 20
327.8790076722
 30
0.0
 11
384.7813565383
 21
239.1490062226
 31
0.0
  0
TEXT
  5
568
330
359
100
AcDbEntity
  8
DV2_AUTO_-_HIDE
  6
CONTINUOUS
 62
     7
100
AcDbText
 10
384.7013565383
 20
282.9969337766
 30
0.0
 40
0.32
  1
887.3
 50
90.0
  7
SEACAD_SEANSI_TTF
 11
384.3813565383
 21
282.9969337766
 31
0.0
100
AcDbText
 73
     3
  0
POLYLINE
  5
569
330
359
100
AcDbEntity
  8
DV2_AUTO_-_HIDE
  6
CONTINUOUS
 62
     7
100
AcDb2dPolyline
 66
     1
 10
0.0
 20
0.0
 30
0.0
  0
VERTEX
  5
61B
330
569
100
AcDbEntity
  8
DV2_AUTO_-_HIDE
  6
CONTINUOUS
 62
     7
100
AcDbVertex
100
AcDb2dVertex
 10
413.7985259342
 20
326.643868072
 30
0.0
  0
VERTEX
  5
61C
330
569
100
AcDbEntity
  8
DV2_AUTO_-_HIDE
  6
CONTINUOUS
 62
     7
100
AcDbVertex
100
AcDb2dVertex
 10
414.1185259261
 20
326.697201404
 30
0.0
  0
VERTEX
  5
61D
330
569
100
AcDbEntity
  8
DV2_AUTO_-_HIDE
  6
CONTINUOUS
 62
     7
100
AcDbVertex
100
AcDb2dVertex
 10
413.7985259342
 20
326.7505347359
 30
0.0
  0
SEQEND
  5
61E
330
569
100
AcDbEntity
  8
DV2_AUTO_-_HIDE
  6
CONTINUOUS
 62
     7
  0
POLYLINE
  5
56A
330
359
100
AcDbEntity
  8
DV2_AUTO_-_HIDE
  6
CONTINUOUS
 62
     7
100
AcDb2dPolyline
 66
     1
 10
0.0
 20
0.0
 30
0.0
  0
VERTEX
  5
61F
330
56A
100
AcDbEntity
  8
DV2_AUTO_-_HIDE
  6
CONTINUOUS
 62
     7
100
AcDbVertex
100
AcDb2dVertex
 10
407.618525955
 20
326.643868072
 30
0.0
  0
VERTEX
  5
620
330
56A
100
AcDbEntity
  8
DV2_AUTO_-_HIDE
  6
CONTINUOUS
 62
     7
100
AcDbVertex
100
AcDb2dVertex
 10
407.2985259631
 20
326.697201404
 30
0.0
  0
VERTEX
  5
621
330
56A
100
AcDbEntity
  8
DV2_AUTO_-_HIDE
  6
CONTINUOUS
 62
     7
100
AcDbVertex
100
AcDb2dVertex
 10
407.618525955
 20
326.7505347359
 30
0.0
  0
SEQEND
  5
622
330
56A
100
AcDbEntity
  8
DV2_AUTO_-_HIDE
  6
CONTINUOUS
 62
     7
  0
LINE
  5
56B
330
359
100
AcDbEntity
  8
DV2_AUTO_-_HIDE
  6
CONTINUOUS
 62
     7
100
AcDbLine
 10
414.1185259261
 20
308.0300076689
 30
0.0
 11
414.1185259261
 21
326.8572013999
 31
0.0
  0
LINE
  5
56C
330
359
100
AcDbEntity
  8
DV2_AUTO_-_HIDE
  6
CONTINUOUS
 62
     7
100
AcDbLine
 10
407.2985259261
 20
308.0300076689
 30
0.0
 11
407.2985259261
 21
326.8572013999
 31
0.0
  0
LINE
  5
56D
330
359
100
AcDbEntity
  8
DV2_AUTO_-_HIDE
  6
CONTINUOUS
 62
     7
100
AcDbLine
 10
414.1185259261
 20
326.697201404
 30
0.0
 11
407.2985259631
 21
326.697201404
 31
0.0
  0
TEXT
  5
56E
330
359
100
AcDbEntity
  8
DV2_AUTO_-_HIDE
  6
CONTINUOUS
 62
     7
100
AcDbText
 10
410.3085259446
 20
326.777201404
 30
0.0
 40
0.32
  1
68.2
  7
SEACAD_SEANSI_TTF
 11
410.3085259446
 21
327.097201404
 31
0.0
100
AcDbText
 73
     3
  0
POLYLINE
  5
56F
330
359
100
AcDbEntity
  8
DV2_AUTO_-_HIDE
  6
CONTINUOUS
 62
     7
100
AcDb2dPolyline
 66
     1
 10
0.0
 20
0.0
 30
0.0
  0
VERTEX
  5
623
330
56F
100
AcDbEntity
  8
DV2_AUTO_-_HIDE
  6
CONTINUOUS
 62
     7
100
AcDbVertex
100
AcDb2dVertex
 10
413.7985259342
 20
338.9468642902
 30
0.0
  0
VERTEX
  5
624
330
56F
100
AcDbEntity
  8
DV2_AUTO_-_HIDE
  6
CONTINUOUS
 62
     7
100
AcDbVertex
100
AcDb2dVertex
 10
414.1185259261
 20
339.0001976222
 30
0.0
  0
VERTEX
  5
625
330
56F
100
AcDbEntity
  8
DV2_AUTO_-_HIDE
  6
CONTINUOUS
 62
     7
100
AcDbVertex
100
AcDb2dVertex
 10
413.7985259342
 20
339.0535309541
 30
0.0
  0
SEQEND
  5
626
330
56F
100
AcDbEntity
  8
DV2_AUTO_-_HIDE
  6
CONTINUOUS
 62
     7
  0
POLYLINE
  5
570
330
359
100
AcDbEntity
  8
DV2_AUTO_-_HIDE
  6
CONTINUOUS
 62
     7
100
AcDb2dPolyline
 66
     1
 10
0.0
 20
0.0
 30
0.0
  0
VERTEX
  5
627
330
570
100
AcDbEntity
  8
DV2_AUTO_-_HIDE
  6
CONTINUOUS
 62
     7
100
AcDbVertex
100
AcDb2dVertex
 10
399.0605260759
 20
338.9468642902
 30
0.0
  0
VERTEX
  5
628
330
570
100
AcDbEntity
  8
DV2_AUTO_-_HIDE
  6
CONTINUOUS
 62
     7
100
AcDbVertex
100
AcDb2dVertex
 10
398.740526084
 20
339.0001976222
 30
0.0
  0
VERTEX
  5
629
330
570
100
AcDbEntity
  8
DV2_AUTO_-_HIDE
  6
CONTINUOUS
 62
     7
100
AcDbVertex
100
AcDb2dVertex
 10
399.0605260759
 20
339.0535309541
 30
0.0
  0
SEQEND
  5
62A
330
570
100
AcDbEntity
  8
DV2_AUTO_-_HIDE
  6
CONTINUOUS
 62
     7
  0
LINE
  5
571
330
359
100
AcDbEntity
  8
DV2_AUTO_-_HIDE
  6
CONTINUOUS
 62
     7
100
AcDbLine
 10
414.1185259261
 20
308.0300076689
 30
0.0
 11
414.1185259261
 21
339.1601976181
 31
0.0
  0
LINE
  5
572
330
359
100
AcDbEntity
  8
DV2_AUTO_-_HIDE
  6
CONTINUOUS
 62
     7
100
AcDbLine
 10
398.7405259261
 20
328.0070076689
 30
0.0
 11
398.7405259261
 21
339.1601976181
 31
0.0
  0
LINE
  5
573
330
359
100
AcDbEntity
  8
DV2_AUTO_-_HIDE
  6
CONTINUOUS
 62
     7
100
AcDbLine
 10
414.1185259261
 20
339.0001976222
 30
0.0
 11
398.740526084
 21
339.0001976222
 31
0.0
  0
TEXT
  5
574
330
359
100
AcDbEntity
  8
DV2_AUTO_-_HIDE
  6
CONTINUOUS
 62
     7
100
AcDbText
 10
405.7953796636
 20
339.0801976222
 30
0.0
 40
0.32
  1
153.78
  7
SEACAD_SEANSI_TTF
 11
405.7953796636
 21
339.4001976222
 31
0.0
100
AcDbText
 73
     3
  0
POLYLINE
  5
575
330
359
100
AcDbEntity
  8
DV2_AUTO_-_HIDE
  6
CONTINUOUS
 62
     7
100
AcDb2dPolyline
 66
     1
 10
0.0
 20
0.0
 30
0.0
  0
VERTEX
  5
62B
330
575
100
AcDbEntity
  8
DV2_AUTO_-_HIDE
  6
CONTINUOUS
 62
     7
100
AcDbVertex
100
AcDb2dVertex
 10
427.7411735722
 20
239.4690076641
 30
0.0
  0
VERTEX
  5
62C
330
575
100
AcDbEntity
  8
DV2_AUTO_-_HIDE
  6
CONTINUOUS
 62
     7
100
AcDbVertex
100
AcDb2dVertex
 10
427.7945069041
 20
239.1490076722
 30
0.0
  0
VERTEX
  5
62D
330
575
100
AcDbEntity
  8
DV2_AUTO_-_HIDE
  6
CONTINUOUS
 62
     7
100
AcDbVertex
100
AcDb2dVertex
 10
427.8478402361
 20
239.4690076641
 30
0.0
  0
SEQEND
  5
62E
330
575
100
AcDbEntity
  8
DV2_AUTO_-_HIDE
  6
CONTINUOUS
 62
     7
  0
POLYLINE
  5
576
330
359
100
AcDbEntity
  8
DV2_AUTO_-_HIDE
  6
CONTINUOUS
 62
     7
100
AcDb2dPolyline
 66
     1
 10
0.0
 20
0.0
 30
0.0
  0
VERTEX
  5
62F
330
576
100
AcDbEntity
  8
DV2_AUTO_-_HIDE
  6
CONTINUOUS
 62
     7
100
AcDbVertex
100
AcDb2dVertex
 10
427.7411735722
 20
250.9740076314
 30
0.0
  0
VERTEX
  5
630
330
576
100
AcDbEntity
  8
DV2_AUTO_-_HIDE
  6
CONTINUOUS
 62
     7
100
AcDbVertex
100
AcDb2dVertex
 10
427.7945069041
 20
251.2940076233
 30
0.0
  0
VERTEX
  5
631
330
576
100
AcDbEntity
  8
DV2_AUTO_-_HIDE
  6
CONTINUOUS
 62
     7
100
AcDbVertex
100
AcDb2dVertex
 10
427.8478402361
 20
250.9740076314
 30
0.0
  0
SEQEND
  5
632
330
576
100
AcDbEntity
  8
DV2_AUTO_-_HIDE
  6
CONTINUOUS
 62
     7
  0
LINE
  5
577
330
359
100
AcDbEntity
  8
DV2_AUTO_-_HIDE
  6
CONTINUOUS
 62
     7
100
AcDbLine
 10
407.4265259229
 20
239.1490076722
 30
0.0
 11
427.9545069001
 21
239.1490076722
 31
0.0
  0
LINE
  5
578
330
359
100
AcDbEntity
  8
DV2_AUTO_-_HIDE
  6
CONTINUOUS
 62
     7
100
AcDbLine
 10
414.2465259229
 20
251.2940076722
 30
0.0
 11
427.9545069001
 21
251.2940076722
 31
0.0
  0
LINE
  5
579
330
359
100
AcDbEntity
  8
DV2_AUTO_-_HIDE
  6
CONTINUOUS
 62
     7
100
AcDbLine
 10
427.7945069041
 20
239.1490076722
 30
0.0
 11
427.7945069041
 21
251.2940076233
 31
0.0
  0
TEXT
  5
57A
330
359
100
AcDbEntity
  8
DV2_AUTO_-_HIDE
  6
CONTINUOUS
 62
     7
100
AcDbText
 10
427.7145069041
 20
244.5873613063
 30
0.0
 40
0.32
  1
121.45
 50
90.0
  7
SEACAD_SEANSI_TTF
 11
427.3945069041
 21
244.5873613063
 31
0.0
100
AcDbText
 73
     3
  0
POLYLINE
  5
57B
330
359
100
AcDbEntity
  8
DV2_AUTO_-_HIDE
  6
CONTINUOUS
 62
     7
100
AcDb2dPolyline
 66
     1
 10
0.0
 20
0.0
 30
0.0
  0
VERTEX
  5
633
330
57B
100
AcDbEntity
  8
DV2_AUTO_-_HIDE
  6
CONTINUOUS
 62
     7
100
AcDbVertex
100
AcDb2dVertex
 10
427.6201776334
 20
327.5590076803
 30
0.0
  0
VERTEX
  5
634
330
57B
100
AcDbEntity
  8
DV2_AUTO_-_HIDE
  6
CONTINUOUS
 62
     7
100
AcDbVertex
100
AcDb2dVertex
 10
427.6735109654
 20
327.8790076722
 30
0.0
  0
VERTEX
  5
635
330
57B
100
AcDbEntity
  8
DV2_AUTO_-_HIDE
  6
CONTINUOUS
 62
     7
100
AcDbVertex
100
AcDb2dVertex
 10
427.7268442973
 20
327.5590076803
 30
0.0
  0
SEQEND
  5
636
330
57B
100
AcDbEntity
  8
DV2_AUTO_-_HIDE
  6
CONTINUOUS
 62
     7
  0
POLYLINE
  5
57C
330
359
100
AcDbEntity
  8
DV2_AUTO_-_HIDE
  6
CONTINUOUS
 62
     7
100
AcDb2dPolyline
 66
     1
 10
0.0
 20
0.0
 30
0.0
  0
VERTEX
  5
637
330
57C
100
AcDbEntity
  8
DV2_AUTO_-_HIDE
  6
CONTINUOUS
 62
     7
100
AcDbVertex
100
AcDb2dVertex
 10
427.6201776334
 20
308.2220073084
 30
0.0
  0
VERTEX
  5
638
330
57C
100
AcDbEntity
  8
DV2_AUTO_-_HIDE
  6
CONTINUOUS
 62
     7
100
AcDbVertex
100
AcDb2dVertex
 10
427.6735109654
 20
307.9020073164
 30
0.0
  0
VERTEX
  5
639
330
57C
100
AcDbEntity
  8
DV2_AUTO_-_HIDE
  6
CONTINUOUS
 62
     7
100
AcDbVertex
100
AcDb2dVertex
 10
427.7268442973
 20
308.2220073084
 30
0.0
  0
SEQEND
  5
63A
330
57C
100
AcDbEntity
  8
DV2_AUTO_-_HIDE
  6
CONTINUOUS
 62
     7
  0
LINE
  5
57D
330
359
100
AcDbEntity
  8
DV2_AUTO_-_HIDE
  6
CONTINUOUS
 62
     7
100
AcDbLine
 10
407.4265259229
 20
327.8790076722
 30
0.0
 11
427.8335109613
 21
327.8790076722
 31
0.0
  0
LINE
  5
57E
330
359
100
AcDbEntity
  8
DV2_AUTO_-_HIDE
  6
CONTINUOUS
 62
     7
100
AcDbLine
 10
414.2465261188
 20
307.9020076722
 30
0.0
 11
427.8335109613
 21
307.9020076722
 31
0.0
  0
LINE
  5
57F
330
359
100
AcDbEntity
  8
DV2_AUTO_-_HIDE
  6
CONTINUOUS
 62
     7
100
AcDbLine
 10
427.6735109654
 20
327.8790076722
 30
0.0
 11
427.6735109654
 21
307.9020073164
 31
0.0
  0
TEXT
  5
580
330
359
100
AcDbEntity
  8
DV2_AUTO_-_HIDE
  6
CONTINUOUS
 62
     7
100
AcDbText
 10
427.5935109654
 20
317.2563611528
 30
0.0
 40
0.32
  1
199.77
 50
90.0
  7
SEACAD_SEANSI_TTF
 11
427.2735109654
 21
317.2563611528
 31
0.0
100
AcDbText
 73
     3
  0
POLYLINE
  5
581
330
359
100
AcDbEntity
  8
DV2_AUTO_-_HIDE
  6
CONTINUOUS
 62
     7
100
AcDb2dPolyline
 66
     1
 10
0.0
 20
0.0
 30
0.0
  0
VERTEX
  5
63B
330
581
100
AcDbEntity
  8
DV2_AUTO_-_HIDE
  6
CONTINUOUS
 62
     7
100
AcDbVertex
100
AcDb2dVertex
 10
418.1076698907
 20
302.7690076803
 30
0.0
  0
VERTEX
  5
63C
330
581
100
AcDbEntity
  8
DV2_AUTO_-_HIDE
  6
CONTINUOUS
 62
     7
100
AcDbVertex
100
AcDb2dVertex
 10
418.1610032227
 20
303.0890076722
 30
0.0
  0
VERTEX
  5
63D
330
581
100
AcDbEntity
  8
DV2_AUTO_-_HIDE
  6
CONTINUOUS
 62
     7
100
AcDbVertex
100
AcDb2dVertex
 10
418.2143365547
 20
302.7690076803
 30
0.0
  0
SEQEND
  5
63E
330
581
100
AcDbEntity
  8
DV2_AUTO_-_HIDE
  6
CONTINUOUS
 62
     7
  0
POLYLINE
  5
582
330
359
100
AcDbEntity
  8
DV2_AUTO_-_HIDE
  6
CONTINUOUS
 62
     7
100
AcDb2dPolyline
 66
     1
 10
0.0
 20
0.0
 30
0.0
  0
VERTEX
  5
63F
330
582
100
AcDbEntity
  8
DV2_AUTO_-_HIDE
  6
CONTINUOUS
 62
     7
100
AcDbVertex
100
AcDb2dVertex
 10
418.1076698907
 20
304.2590076641
 30
0.0
  0
VERTEX
  5
640
330
582
100
AcDbEntity
  8
DV2_AUTO_-_HIDE
  6
CONTINUOUS
 62
     7
100
AcDbVertex
100
AcDb2dVertex
 10
418.1610032227
 20
303.9390076722
 30
0.0
  0
VERTEX
  5
641
330
582
100
AcDbEntity
  8
DV2_AUTO_-_HIDE
  6
CONTINUOUS
 62
     7
100
AcDbVertex
100
AcDb2dVertex
 10
418.2143365547
 20
304.2590076641
 30
0.0
  0
SEQEND
  5
642
330
582
100
AcDbEntity
  8
DV2_AUTO_-_HIDE
  6
CONTINUOUS
 62
     7
  0
LINE
  5
583
330
359
100
AcDbEntity
  8
DV2_AUTO_-_HIDE
  6
CONTINUOUS
 62
     7
100
AcDbLine
 10
414.3265259229
 20
303.0890076722
 30
0.0
 11
418.3210032187
 21
303.0890076722
 31
0.0
  0
LINE
  5
584
330
359
100
AcDbEntity
  8
DV2_AUTO_-_HIDE
  6
CONTINUOUS
 62
     7
100
AcDbLine
 10
414.3265259229
 20
303.9390076722
 30
0.0
 11
418.3210032187
 21
303.9390076722
 31
0.0
  0
LINE
  5
585
330
359
100
AcDbEntity
  8
DV2_AUTO_-_HIDE
  6
CONTINUOUS
 62
     7
100
AcDbLine
 10
418.1610032227
 20
302.4490076883
 30
0.0
 11
418.1610032227
 21
304.94148073
 31
0.0
  0
TEXT
  5
586
330
359
100
AcDbEntity
  8
DV2_AUTO_-_HIDE
  6
CONTINUOUS
 62
     7
100
AcDbText
 10
418.0810032227
 20
304.263627172
 30
0.0
 40
0.32
  1
8.5
 50
90.0
  7
SEACAD_SEANSI_TTF
 11
417.7610032227
 21
304.263627172
 31
0.0
100
AcDbText
 73
     3
  0
POLYLINE
  5
587
330
359
100
AcDbEntity
  8
DV2_AUTO_-_HIDE
  6
CONTINUOUS
 62
     7
100
AcDb2dPolyline
 66
     1
 10
0.0
 20
0.0
 30
0.0
  0
VERTEX
  5
643
330
587
100
AcDbEntity
  8
DV2_AUTO_-_HIDE
  6
CONTINUOUS
 62
     7
100
AcDbVertex
100
AcDb2dVertex
 10
425.297741818
 20
303.6190076803
 30
0.0
  0
VERTEX
  5
644
330
587
100
AcDbEntity
  8
DV2_AUTO_-_HIDE
  6
CONTINUOUS
 62
     7
100
AcDbVertex
100
AcDb2dVertex
 10
425.35107515
 20
303.9390076722
 30
0.0
  0
VERTEX
  5
645
330
587
100
AcDbEntity
  8
DV2_AUTO_-_HIDE
  6
CONTINUOUS
 62
     7
100
AcDbVertex
100
AcDb2dVertex
 10
425.404408482
 20
303.6190076803
 30
0.0
  0
SEQEND
  5
646
330
587
100
AcDbEntity
  8
DV2_AUTO_-_HIDE
  6
CONTINUOUS
 62
     7
  0
POLYLINE
  5
588
330
359
100
AcDbEntity
  8
DV2_AUTO_-_HIDE
  6
CONTINUOUS
 62
     7
100
AcDb2dPolyline
 66
     1
 10
0.0
 20
0.0
 30
0.0
  0
VERTEX
  5
647
330
588
100
AcDbEntity
  8
DV2_AUTO_-_HIDE
  6
CONTINUOUS
 62
     7
100
AcDbVertex
100
AcDb2dVertex
 10
425.297741818
 20
283.8340083674
 30
0.0
  0
VERTEX
  5
648
330
588
100
AcDbEntity
  8
DV2_AUTO_-_HIDE
  6
CONTINUOUS
 62
     7
100
AcDbVertex
100
AcDb2dVertex
 10
425.35107515
 20
283.5140083755
 30
0.0
  0
VERTEX
  5
649
330
588
100
AcDbEntity
  8
DV2_AUTO_-_HIDE
  6
CONTINUOUS
 62
     7
100
AcDbVertex
100
AcDb2dVertex
 10
425.404408482
 20
283.8340083674
 30
0.0
  0
SEQEND
  5
64A
330
588
100
AcDbEntity
  8
DV2_AUTO_-_HIDE
  6
CONTINUOUS
 62
     7
  0
LINE
  5
589
330
359
100
AcDbEntity
  8
DV2_AUTO_-_HIDE
  6
CONTINUOUS
 62
     7
100
AcDbLine
 10
414.4065259229
 20
303.9390076722
 30
0.0
 11
425.511075146
 21
303.9390076722
 31
0.0
  0
LINE
  5
58A
330
359
100
AcDbEntity
  8
DV2_AUTO_-_HIDE
  6
CONTINUOUS
 62
     7
100
AcDbLine
 10
398.8685259229
 20
283.5140076722
 30
0.0
 11
425.511075146
 21
283.5140076722
 31
0.0
  0
LINE
  5
58B
330
359
100
AcDbEntity
  8
DV2_AUTO_-_HIDE
  6
CONTINUOUS
 62
     7
100
AcDbLine
 10
425.35107515
 20
303.9390076722
 30
0.0
 11
425.35107515
 21
283.5140083755
 31
0.0
  0
TEXT
  5
58C
330
359
100
AcDbEntity
  8
DV2_AUTO_-_HIDE
  6
CONTINUOUS
 62
     7
100
AcDbText
 10
425.27107515
 20
293.0923616824
 30
0.0
 40
0.32
  1
204.25
 50
90.0
  7
SEACAD_SEANSI_TTF
 11
424.95107515
 21
293.0923616824
 31
0.0
100
AcDbText
 73
     3
  0
LINE
  5
58E
330
359
100
AcDbEntity
  8
DV2_DEFAULT
  6
CONTINUOUS
 62
     7
100
AcDbLine
 10
398.7405259261
 20
239.1490076722
 30
0.0
 11
391.6605259261
 21
239.1490076722
 31
0.0
  0
LINE
  5
58F
330
359
100
AcDbEntity
  8
DV2_DEFAULT
  6
CONTINUOUS
 62
     7
100
AcDbLine
 10
391.6605259261
 20
239.1490076722
 30
0.0
 11
391.6605259261
 21
236.6490076722
 31
0.0
  0
LINE
  5
590
330
359
100
AcDbEntity
  8
DV2_DEFAULT
  6
CONTINUOUS
 62
     7
100
AcDbLine
 10
391.6605259261
 20
236.6490076722
 30
0.0
 11
398.7405259261
 21
235.6490076722
 31
0.0
  0
LINE
  5
591
330
359
100
AcDbEntity
  8
DV2_DEFAULT
  6
CONTINUOUS
 62
     7
100
AcDbLine
 10
398.7405259261
 20
235.6490076722
 30
0.0
 11
407.2985259261
 21
235.6490076722
 31
0.0
  0
LINE
  5
592
330
359
100
AcDbEntity
  8
DV2_DEFAULT
  6
CONTINUOUS
 62
     7
100
AcDbLine
 10
407.2985259261
 20
235.6490076722
 30
0.0
 11
407.2985259261
 21
239.1490076722
 31
0.0
  0
ENDBLK
  5
594
330
359
100
AcDbEntity
  8
0
100
AcDbBlockEnd
  0
BLOCK
  5
59D
330
595
100
AcDbEntity
  8
0
100
AcDbBlockBegin
  2
GDIMGGROUP
 70
     0
 10
0.0
 20
0.0
 30
0.0
  3
GDIMGGROUP
  1

  0
POLYLINE
  5
597
330
595
100
AcDbEntity
  8
DEFAULT
  6
CONTINUOUS
 62
   136
100
AcDb2dPolyline
 66
     1
 10
0.0
 20
0.0
 30
0.0
  0
VERTEX
  5
64B
330
597
100
AcDbEntity
  8
DEFAULT
  6
CONTINUOUS
 62
   136
100
AcDbVertex
100
AcDb2dVertex
 10
75.7972269254
 20
156.7140075913
 30
0.0
  0
VERTEX
  5
64C
330
597
100
AcDbEntity
  8
DEFAULT
  6
CONTINUOUS
 62
   136
100
AcDbVertex
100
AcDb2dVertex
 10
75.2638936056
 20
153.5140076722
 30
0.0
  0
VERTEX
  5
64D
330
597
100
AcDbEntity
  8
DEFAULT
  6
CONTINUOUS
 62
   136
100
AcDbVertex
100
AcDb2dVertex
 10
74.7305602857
 20
156.7140075913
 30
0.0
  0
SEQEND
  5
64E
330
597
100
AcDbEntity
  8
DEFAULT
  6
CONTINUOUS
 62
   136
  0
POLYLINE
  5
598
330
595
100
AcDbEntity
  8
DEFAULT
  6
CONTINUOUS
 62
   136
100
AcDb2dPolyline
 66
     1
 10
0.0
 20
0.0
 30
0.0
  0
VERTEX
  5
64F
330
598
100
AcDbEntity
  8
DEFAULT
  6
CONTINUOUS
 62
   136
100
AcDbVertex
100
AcDb2dVertex
 10
75.7972269254
 20
280.3140029846
 30
0.0
  0
VERTEX
  5
650
330
598
100
AcDbEntity
  8
DEFAULT
  6
CONTINUOUS
 62
   136
100
AcDbVertex
100
AcDb2dVertex
 10
75.2638936056
 20
283.5140029038
 30
0.0
  0
VERTEX
  5
651
330
598
100
AcDbEntity
  8
DEFAULT
  6
CONTINUOUS
 62
   136
100
AcDbVertex
100
AcDb2dVertex
 10
74.7305602857
 20
280.3140029846
 30
0.0
  0
SEQEND
  5
652
330
598
100
AcDbEntity
  8
DEFAULT
  6
CONTINUOUS
 62
   136
  0
LINE
  5
599
330
595
100
AcDbEntity
  8
DEFAULT
  6
CONTINUOUS
 62
   136
100
AcDbLine
 10
147.9682856252
 20
153.5140076722
 30
0.0
 11
73.663893646
 21
153.5140076722
 31
0.0
  0
LINE
  5
59A
330
595
100
AcDbEntity
  8
DEFAULT
  6
CONTINUOUS
 62
   136
100
AcDbLine
 10
114.7832856252
 20
283.5140076722
 30
0.0
 11
73.663893646
 21
283.5140076722
 31
0.0
  0
LINE
  5
59B
330
595
100
AcDbEntity
  8
DEFAULT
  6
CONTINUOUS
 62
   136
100
AcDbLine
 10
75.2638936056
 20
153.5140076722
 30
0.0
 11
75.2638936056
 21
283.5140029038
 31
0.0
  0
TEXT
  5
59C
330
595
100
AcDbEntity
  8
DEFAULT
  6
CONTINUOUS
 62
   136
100
AcDbText
 10
74.4638936056
 20
213.8310784587
 30
0.0
 40
3.2
  1
1300
 50
90.0
  7
SEACAD_SEANSI_TTF
 11
71.2638936056
 21
213.8310784587
 31
0.0
100
AcDbText
 73
     3
  0
ENDBLK
  5
59E
330
595
100
AcDbEntity
  8
0
100
AcDbBlockEnd
  0
BLOCK
  5
5A7
330
59F
100
AcDbEntity
  8
0
100
AcDbBlockBegin
  2
GDIMGGROUP1
 70
     0
 10
0.0
 20
0.0
 30
0.0
  3
GDIMGGROUP1
  1

  0
POLYLINE
  5
5A1
330
59F
100
AcDbEntity
  8
DEFAULT
  6
CONTINUOUS
 62
   136
100
AcDb2dPolyline
 66
     1
 10
0.0
 20
0.0
 30
0.0
  0
VERTEX
  5
653
330
5A1
100
AcDbEntity
  8
DEFAULT
  6
CONTINUOUS
 62
   136
100
AcDbVertex
100
AcDb2dVertex
 10
379.8359604495
 20
344.6024824949
 30
0.0
  0
VERTEX
  5
654
330
5A1
100
AcDbEntity
  8
DEFAULT
  6
CONTINUOUS
 62
   136
100
AcDbVertex
100
AcDb2dVertex
 10
376.6359605304
 20
345.1358158148
 30
0.0
  0
VERTEX
  5
655
330
5A1
100
AcDbEntity
  8
DEFAULT
  6
CONTINUOUS
 62
   136
100
AcDbVertex
100
AcDb2dVertex
 10
379.8359604495
 20
345.6691491346
 30
0.0
  0
SEQEND
  5
656
330
5A1
100
AcDbEntity
  8
DEFAULT
  6
CONTINUOUS
 62
   136
  0
POLYLINE
  5
5A2
330
59F
100
AcDbEntity
  8
DEFAULT
  6
CONTINUOUS
 62
   136
100
AcDb2dPolyline
 66
     1
 10
0.0
 20
0.0
 30
0.0
  0
VERTEX
  5
657
330
5A2
100
AcDbEntity
  8
DEFAULT
  6
CONTINUOUS
 62
   136
100
AcDbVertex
100
AcDb2dVertex
 10
395.5405256654
 20
344.6024824949
 30
0.0
  0
VERTEX
  5
658
330
5A2
100
AcDbEntity
  8
DEFAULT
  6
CONTINUOUS
 62
   136
100
AcDbVertex
100
AcDb2dVertex
 10
398.7405255845
 20
345.1358158148
 30
0.0
  0
VERTEX
  5
659
330
5A2
100
AcDbEntity
  8
DEFAULT
  6
CONTINUOUS
 62
   136
100
AcDbVertex
100
AcDb2dVertex
 10
395.5405256654
 20
345.6691491346
 30
0.0
  0
SEQEND
  5
65A
330
5A2
100
AcDbEntity
  8
DEFAULT
  6
CONTINUOUS
 62
   136
  0
LINE
  5
5A3
330
59F
100
AcDbEntity
  8
DEFAULT
  6
CONTINUOUS
 62
   136
100
AcDbLine
 10
376.6359605304
 20
162.5933459966
 30
0.0
 11
376.6359605304
 21
346.7358157744
 31
0.0
  0
LINE
  5
5A4
330
59F
100
AcDbEntity
  8
DEFAULT
  6
CONTINUOUS
 62
   136
100
AcDbLine
 10
398.7405259261
 20
329.1590099276
 30
0.0
 11
398.7405259261
 21
346.7358157744
 31
0.0
  0
LINE
  5
5A5
330
59F
100
AcDbEntity
  8
DEFAULT
  6
CONTINUOUS
 62
   136
100
AcDbLine
 10
376.6359605304
 20
345.1358158148
 30
0.0
 11
398.7405255845
 21
345.1358158148
 31
0.0
  0
TEXT
  5
5A6
330
59F
100
AcDbEntity
  8
DEFAULT
  6
CONTINUOUS
 62
   136
100
AcDbText
 10
384.1760479355
 20
345.9358158148
 30
0.0
 40
3.2
  1
221
  7
SEACAD_SEANSI_TTF
 11
384.1760479355
 21
349.1358158148
 31
0.0
100
AcDbText
 73
     3
  0
ENDBLK
  5
5A8
330
59F
100
AcDbEntity
  8
0
100
AcDbBlockEnd
  0
BLOCK
  5
5B1
330
5A9
100
AcDbEntity
  8
0
100
AcDbBlockBegin
  2
GDIMGGROUP2
 70
     0
 10
0.0
 20
0.0
 30
0.0
  3
GDIMGGROUP2
  1

  0
POLYLINE
  5
5AB
330
5A9
100
AcDbEntity
  8
DEFAULT
  6
CONTINUOUS
 62
   136
100
AcDb2dPolyline
 66
     1
 10
0.0
 20
0.0
 30
0.0
  0
VERTEX
  5
65B
330
5AB
100
AcDbEntity
  8
DEFAULT
  6
CONTINUOUS
 62
   136
100
AcDbVertex
100
AcDb2dVertex
 10
379.8359604495
 20
135.0350721668
 30
0.0
  0
VERTEX
  5
65C
330
5AB
100
AcDbEntity
  8
DEFAULT
  6
CONTINUOUS
 62
   136
100
AcDbVertex
100
AcDb2dVertex
 10
376.6359605304
 20
134.5017388469
 30
0.0
  0
VERTEX
  5
65D
330
5AB
100
AcDbEntity
  8
DEFAULT
  6
CONTINUOUS
 62
   136
100
AcDbVertex
100
AcDb2dVertex
 10
379.8359604495
 20
133.9684055271
 30
0.0
  0
SEQEND
  5
65E
330
5AB
100
AcDbEntity
  8
DEFAULT
  6
CONTINUOUS
 62
   136
  0
POLYLINE
  5
5AC
330
5A9
100
AcDbEntity
  8
DEFAULT
  6
CONTINUOUS
 62
   136
100
AcDb2dPolyline
 66
     1
 10
0.0
 20
0.0
 30
0.0
  0
VERTEX
  5
65F
330
5AC
100
AcDbEntity
  8
DEFAULT
  6
CONTINUOUS
 62
   136
100
AcDbVertex
100
AcDb2dVertex
 10
454.4785260166
 20
135.0350721668
 30
0.0
  0
VERTEX
  5
660
330
5AC
100
AcDbEntity
  8
DEFAULT
  6
CONTINUOUS
 62
   136
100
AcDbVertex
100
AcDb2dVertex
 10
457.6785259357
 20
134.5017388469
 30
0.0
  0
VERTEX
  5
661
330
5AC
100
AcDbEntity
  8
DEFAULT
  6
CONTINUOUS
 62
   136
100
AcDbVertex
100
AcDb2dVertex
 10
454.4785260166
 20
133.9684055271
 30
0.0
  0
SEQEND
  5
662
330
5AC
100
AcDbEntity
  8
DEFAULT
  6
CONTINUOUS
 62
   136
  0
LINE
  5
5AD
330
5A9
100
AcDbEntity
  8
DEFAULT
  6
CONTINUOUS
 62
   136
100
AcDbLine
 10
376.6359605304
 20
154.6564129188
 30
0.0
 11
376.6359605304
 21
132.9017388874
 31
0.0
  0
LINE
  5
5AE
330
5A9
100
AcDbEntity
  8
DEFAULT
  6
CONTINUOUS
 62
   136
100
AcDbLine
 10
457.6785259261
 20
154.6640077045
 30
0.0
 11
457.6785259261
 21
132.9017388874
 31
0.0
  0
LINE
  5
5AF
330
5A9
100
AcDbEntity
  8
DEFAULT
  6
CONTINUOUS
 62
   136
100
AcDbLine
 10
376.6359605304
 20
134.5017388469
 30
0.0
 11
457.6785259357
 21
134.5017388469
 31
0.0
  0
TEXT
  5
5B0
330
5A9
100
AcDbEntity
  8
DEFAULT
  6
CONTINUOUS
 62
   136
100
AcDbText
 10
411.8265115257
 20
135.3017388469
 30
0.0
 40
3.2
  1
810.4
  7
SEACAD_SEANSI_TTF
 11
411.8265115257
 21
138.5017388469
 31
0.0
100
AcDbText
 73
     3
  0
ENDBLK
  5
5B2
330
5A9
100
AcDbEntity
  8
0
100
AcDbBlockEnd
  0
BLOCK
  5
5BB
330
5B3
100
AcDbEntity
  8
0
100
AcDbBlockBegin
  2
GDIMGGROUP3
 70
     0
 10
0.0
 20
0.0
 30
0.0
  3
GDIMGGROUP3
  1

  0
POLYLINE
  5
5B5
330
5B3
100
AcDbEntity
  8
DEFAULT
  6
CONTINUOUS
 62
   136
100
AcDb2dPolyline
 66
     1
 10
0.0
 20
0.0
 30
0.0
  0
VERTEX
  5
663
330
5B5
100
AcDbEntity
  8
DEFAULT
  6
CONTINUOUS
 62
   136
100
AcDbVertex
100
AcDb2dVertex
 10
151.3232855121
 20
139.0160788029
 30
0.0
  0
VERTEX
  5
664
330
5B5
100
AcDbEntity
  8
DEFAULT
  6
CONTINUOUS
 62
   136
100
AcDbVertex
100
AcDb2dVertex
 10
148.1232855929
 20
138.482745483
 30
0.0
  0
VERTEX
  5
665
330
5B5
100
AcDbEntity
  8
DEFAULT
  6
CONTINUOUS
 62
   136
100
AcDbVertex
100
AcDb2dVertex
 10
151.3232855121
 20
137.9494121632
 30
0.0
  0
SEQEND
  5
666
330
5B5
100
AcDbEntity
  8
DEFAULT
  6
CONTINUOUS
 62
   136
  0
POLYLINE
  5
5B6
330
5B3
100
AcDbEntity
  8
DEFAULT
  6
CONTINUOUS
 62
   136
100
AcDb2dPolyline
 66
     1
 10
0.0
 20
0.0
 30
0.0
  0
VERTEX
  5
667
330
5B6
100
AcDbEntity
  8
DEFAULT
  6
CONTINUOUS
 62
   136
100
AcDbVertex
100
AcDb2dVertex
 10
225.3232832061
 20
139.0160788029
 30
0.0
  0
VERTEX
  5
668
330
5B6
100
AcDbEntity
  8
DEFAULT
  6
CONTINUOUS
 62
   136
100
AcDbVertex
100
AcDb2dVertex
 10
228.5232831253
 20
138.482745483
 30
0.0
  0
VERTEX
  5
669
330
5B6
100
AcDbEntity
  8
DEFAULT
  6
CONTINUOUS
 62
   136
100
AcDbVertex
100
AcDb2dVertex
 10
225.3232832061
 20
137.9494121632
 30
0.0
  0
SEQEND
  5
66A
330
5B6
100
AcDbEntity
  8
DEFAULT
  6
CONTINUOUS
 62
   136
  0
LINE
  5
5B7
330
5B3
100
AcDbEntity
  8
DEFAULT
  6
CONTINUOUS
 62
   136
100
AcDbLine
 10
148.1232855929
 20
157.2340077045
 30
0.0
 11
148.1232855929
 21
136.8827455234
 31
0.0
  0
LINE
  5
5B8
330
5B3
100
AcDbEntity
  8
DEFAULT
  6
CONTINUOUS
 62
   136
100
AcDbLine
 10
228.5232855929
 20
157.2340077045
 30
0.0
 11
228.5232855929
 21
136.8827455234
 31
0.0
  0
LINE
  5
5B9
330
5B3
100
AcDbEntity
  8
DEFAULT
  6
CONTINUOUS
 62
   136
100
AcDbLine
 10
148.1232855929
 20
138.482745483
 30
0.0
 11
228.5232831253
 21
138.482745483
 31
0.0
  0
TEXT
  5
5BA
330
5B3
100
AcDbEntity
  8
DEFAULT
  6
CONTINUOUS
 62
   136
100
AcDbText
 10
184.6510892371
 20
139.282745483
 30
0.0
 40
3.2
  1
806
  7
SEACAD_SEANSI_TTF
 11
184.6510892371
 21
142.482745483
 31
0.0
100
AcDbText
 73
     3
  0
ENDBLK
  5
5BC
330
5B3
100
AcDbEntity
  8
0
100
AcDbBlockEnd
  0
BLOCK
  5
5C5
330
5BD
100
AcDbEntity
  8
0
100
AcDbBlockBegin
  2
GDIMGGROUP4
 70
     0
 10
0.0
 20
0.0
 30
0.0
  3
GDIMGGROUP4
  1

  0
POLYLINE
  5
5BF
330
5BD
100
AcDbEntity
  8
DEFAULT
  6
CONTINUOUS
 62
   136
100
AcDb2dPolyline
 66
     1
 10
0.0
 20
0.0
 30
0.0
  0
VERTEX
  5
66B
330
5BF
100
AcDbEntity
  8
DEFAULT
  6
CONTINUOUS
 62
   136
100
AcDbVertex
100
AcDb2dVertex
 10
289.1979363331
 20
156.7140075913
 30
0.0
  0
VERTEX
  5
66C
330
5BF
100
AcDbEntity
  8
DEFAULT
  6
CONTINUOUS
 62
   136
100
AcDbVertex
100
AcDb2dVertex
 10
289.7312696529
 20
153.5140076722
 30
0.0
  0
VERTEX
  5
66D
330
5BF
100
AcDbEntity
  8
DEFAULT
  6
CONTINUOUS
 62
   136
100
AcDbVertex
100
AcDb2dVertex
 10
290.2646029728
 20
156.7140075913
 30
0.0
  0
SEQEND
  5
66E
330
5BF
100
AcDbEntity
  8
DEFAULT
  6
CONTINUOUS
 62
   136
  0
POLYLINE
  5
5C0
330
5BD
100
AcDbEntity
  8
DEFAULT
  6
CONTINUOUS
 62
   136
100
AcDb2dPolyline
 66
     1
 10
0.0
 20
0.0
 30
0.0
  0
VERTEX
  5
66F
330
5C0
100
AcDbEntity
  8
DEFAULT
  6
CONTINUOUS
 62
   136
100
AcDbVertex
100
AcDb2dVertex
 10
289.1979363331
 20
324.6790066897
 30
0.0
  0
VERTEX
  5
670
330
5C0
100
AcDbEntity
  8
DEFAULT
  6
CONTINUOUS
 62
   136
100
AcDbVertex
100
AcDb2dVertex
 10
289.7312696529
 20
327.8790066088
 30
0.0
  0
VERTEX
  5
671
330
5C0
100
AcDbEntity
  8
DEFAULT
  6
CONTINUOUS
 62
   136
100
AcDbVertex
100
AcDb2dVertex
 10
290.2646029728
 20
324.6790066897
 30
0.0
  0
SEQEND
  5
672
330
5C0
100
AcDbEntity
  8
DEFAULT
  6
CONTINUOUS
 62
   136
  0
LINE
  5
5C1
330
5BD
100
AcDbEntity
  8
DEFAULT
  6
CONTINUOUS
 62
   136
100
AcDbLine
 10
228.6782855606
 20
153.5140076722
 30
0.0
 11
291.3312696125
 21
153.5140076722
 31
0.0
  0
LINE
  5
5C2
330
5BD
100
AcDbEntity
  8
DEFAULT
  6
CONTINUOUS
 62
   136
100
AcDbLine
 10
263.8632855606
 20
327.8790076722
 30
0.0
 11
291.3312696125
 21
327.8790076722
 31
0.0
  0
LINE
  5
5C3
330
5BD
100
AcDbEntity
  8
DEFAULT
  6
CONTINUOUS
 62
   136
100
AcDbLine
 10
289.7312696529
 20
153.5140076722
 30
0.0
 11
289.7312696529
 21
327.8790066088
 31
0.0
  0
TEXT
  5
5C4
330
5BD
100
AcDbEntity
  8
DEFAULT
  6
CONTINUOUS
 62
   136
100
AcDbText
 10
288.9312696529
 20
235.8535803112
 30
0.0
 40
3.2
  1
1744
 50
90.0
  7
SEACAD_SEANSI_TTF
 11
285.7312696529
 21
235.8535803112
 31
0.0
100
AcDbText
 73
     3
  0
ENDBLK
  5
5C6
330
5BD
100
AcDbEntity
  8
0
100
AcDbBlockEnd
  0
BLOCK
  5
5CF
330
5C7
100
AcDbEntity
  8
0
100
AcDbBlockBegin
  2
GDIMGGROUP5
 70
     0
 10
0.0
 20
0.0
 30
0.0
  3
GDIMGGROUP5
  1

  0
POLYLINE
  5
5C9
330
5C7
100
AcDbEntity
  8
DEFAULT
  6
CONTINUOUS
 62
   136
100
AcDb2dPolyline
 66
     1
 10
0.0
 20
0.0
 30
0.0
  0
VERTEX
  5
673
330
5C9
100
AcDbEntity
  8
DEFAULT
  6
CONTINUOUS
 62
   136
100
AcDbVertex
100
AcDb2dVertex
 10
401.9405258453
 20
338.400659537
 30
0.0
  0
VERTEX
  5
674
330
5C9
100
AcDbEntity
  8
DEFAULT
  6
CONTINUOUS
 62
   136
100
AcDbVertex
100
AcDb2dVertex
 10
398.7405259261
 20
338.9339928568
 30
0.0
  0
VERTEX
  5
675
330
5C9
100
AcDbEntity
  8
DEFAULT
  6
CONTINUOUS
 62
   136
100
AcDbVertex
100
AcDb2dVertex
 10
401.9405258453
 20
339.4673261767
 30
0.0
  0
SEQEND
  5
676
330
5C9
100
AcDbEntity
  8
DEFAULT
  6
CONTINUOUS
 62
   136
  0
POLYLINE
  5
5CA
330
5C7
100
AcDbEntity
  8
DEFAULT
  6
CONTINUOUS
 62
   136
100
AcDb2dPolyline
 66
     1
 10
0.0
 20
0.0
 30
0.0
  0
VERTEX
  5
677
330
5CA
100
AcDbEntity
  8
DEFAULT
  6
CONTINUOUS
 62
   136
100
AcDbVertex
100
AcDb2dVertex
 10
388.460526007
 20
338.400659537
 30
0.0
  0
VERTEX
  5
678
330
5CA
100
AcDbEntity
  8
DEFAULT
  6
CONTINUOUS
 62
   136
100
AcDbVertex
100
AcDb2dVertex
 10
391.6605259261
 20
338.9339928568
 30
0.0
  0
VERTEX
  5
679
330
5CA
100
AcDbEntity
  8
DEFAULT
  6
CONTINUOUS
 62
   136
100
AcDbVertex
100
AcDb2dVertex
 10
388.460526007
 20
339.4673261767
 30
0.0
  0
SEQEND
  5
67A
330
5CA
100
AcDbEntity
  8
DEFAULT
  6
CONTINUOUS
 62
   136
  0
LINE
  5
5CB
330
5C7
100
AcDbEntity
  8
DEFAULT
  6
CONTINUOUS
 62
   136
100
AcDbLine
 10
398.7405259261
 20
329.1590099276
 30
0.0
 11
398.7405259261
 21
340.5339928164
 31
0.0
  0
LINE
  5
5CC
330
5C7
100
AcDbEntity
  8
DEFAULT
  6
CONTINUOUS
 62
   136
100
AcDbLine
 10
391.6605259261
 20
240.4290076398
 30
0.0
 11
391.6605259261
 21
340.5339928164
 31
0.0
  0
LINE
  5
5CD
330
5C7
100
AcDbEntity
  8
DEFAULT
  6
CONTINUOUS
 62
   136
100
AcDbLine
 10
415.0285828958
 20
338.9339928568
 30
0.0
 11
385.2605257282
 21
338.9339928568
 31
0.0
  0
TEXT
  5
5CE
330
5C7
100
AcDbEntity
  8
DEFAULT
  6
CONTINUOUS
 62
   136
100
AcDbText
 10
405.9085822231
 20
339.7339928568
 30
0.0
 40
3.2
  1
70.8
  7
SEACAD_SEANSI_TTF
 11
405.9085822231
 21
342.9339928568
 31
0.0
100
AcDbText
 73
     3
  0
ENDBLK
  5
5D0
330
5C7
100
AcDbEntity
  8
0
100
AcDbBlockEnd
  0
ENDSEC
  0
SECTION
  2
ENTITIES
  0
TEXT
  5
5E
330
1F
100
AcDbEntity
  8
DEFAULT
  6
CONTINUOUS
 62
     7
100
AcDbText
 10
22.7865029513
 20
52.4245047551
 30
0.0
 40
10.0
  1
D6510 + Stand Type3
  7
SEACAD_SEANSI_TTF
 11
22.7865029513
 21
62.4245047551
 31
0.0
100
AcDbText
 73
     3
  0
TEXT
  5
60
330
1F
100
AcDbEntity
  8
DEFAULT
  6
CONTINUOUS
 62
     7
100
AcDbText
 10
22.7865029513
 20
37.7903584137
 30
0.0
 40
10.0
  1
Display center height:1300±120mm
  7
SEACAD_SEANSI_TTF
 11
22.7865029513
 21
47.7903584137
 31
0.0
100
AcDbText
 73
     3
  0
TEXT
  5
61
330
1F
100
AcDbEntity
  8
DEFAULT
  6
CONTINUOUS
 62
     7
100
AcDbText
 10
22.7865029513
 20
23.1562120722
 30
0.0
 40
10.0
  1
(1180,1240,1300,1360,1420)
  7
SEACAD_SEANSI_TTF
 11
22.7865029513
 21
33.1562120722
 31
0.0
100
AcDbText
 73
     3
  0
INSERT
  5
63
330
1F
100
AcDbEntity
  8
DEFAULT
100
AcDbBlockReference
  2
SE
 10
0.0
 20
0.0
 30
0.0
  0
INSERT
  5
35A
330
1F
100
AcDbEntity
  8
DEFAULT
100
AcDbBlockReference
  2
SE1
 10
0.0
 20
0.0
 30
0.0
  0
INSERT
  5
596
330
1F
100
AcDbEntity
  8
DEFAULT
100
AcDbBlockReference
  2
GDIMGGROUP
 10
0.0
 20
0.0
 30
0.0
  0
INSERT
  5
5A0
330
1F
100
AcDbEntity
  8
DEFAULT
100
AcDbBlockReference
  2
GDIMGGROUP1
 10
0.0
 20
0.0
 30
0.0
  0
INSERT
  5
5AA
330
1F
100
AcDbEntity
  8
DEFAULT
100
AcDbBlockReference
  2
GDIMGGROUP2
 10
0.0
 20
0.0
 30
0.0
  0
INSERT
  5
5B4
330
1F
100
AcDbEntity
  8
DEFAULT
100
AcDbBlockReference
  2
GDIMGGROUP3
 10
0.0
 20
0.0
 30
0.0
  0
INSERT
  5
5BE
330
1F
100
AcDbEntity
  8
DEFAULT
100
AcDbBlockReference
  2
GDIMGGROUP4
 10
0.0
 20
0.0
 30
0.0
  0
INSERT
  5
5C8
330
1F
100
AcDbEntity
  8
DEFAULT
100
AcDbBlockReference
  2
GDIMGGROUP5
 10
0.0
 20
0.0
 30
0.0
  0
ENDSEC
  0
SECTION
  2
OBJECTS
  0
DICTIONARY
  5
C
330
0
100
AcDbDictionary
  3
ACAD_GROUP
350
D
  3
ACAD_LAYOUT
350
1A
  3
ACAD_MLEADERSTYLE
350
5D3
  3
ACAD_MLINESTYLE
350
17
  3
ACAD_PLOTSETTINGS
350
19
  3
ACAD_SCALELIST
350
3B
  3
ACAD_VISUALSTYLE
350
2A
  3
ACDBVARIABLEDICTIONARY
350
5D1
1001
ACAD
1000
TREAT_AS_HARD
1070
     0
  0
DICTIONARY
  5
D
102
{ACAD_REACTORS
330
C
102
}
330
C
100
AcDbDictionary
1001
ACAD
1000
TREAT_AS_HARD
1070
     0
  0
DICTIONARY
  5
1A
102
{ACAD_REACTORS
330
C
102
}
330
C
100
AcDbDictionary
1001
ACAD
1000
TREAT_AS_HARD
1070
     0
  0
DICTIONARY
  5
5D3
102
{ACAD_REACTORS
330
C
102
}
330
C
100
AcDbDictionary
1001
ACAD
1000
TREAT_AS_HARD
1070
     0
  0
DICTIONARY
  5
17
102
{ACAD_REACTORS
330
C
102
}
330
C
100
AcDbDictionary
  3
STANDARD
350
18
1001
ACAD
1000
TREAT_AS_HARD
1070
     0
  0
DICTIONARY
  5
19
102
{ACAD_REACTORS
330
C
102
}
330
C
100
AcDbDictionary
1001
ACAD
1000
TREAT_AS_HARD
1070
     0
  0
DICTIONARY
  5
3B
102
{ACAD_REACTORS
330
C
102
}
330
C
100
AcDbDictionary
  3
A0
350
3C
  3
A1
350
3D
  3
A2
350
3E
  3
A3
350
3F
  3
A4
350
40
  3
A5
350
41
  3
A6
350
42
  3
A7
350
43
  3
A8
350
44
  3
A9
350
45
  3
B0
350
46
  3
B1
350
47
  3
B2
350
48
  3
B3
350
49
  3
B4
350
4A
  3
B5
350
4B
  3
B6
350
4C
  3
B7
350
4D
  3
B8
350
4E
  3
B9
350
4F
  3
C0
350
50
  3
C1
350
51
  3
C2
350
52
  3
C3
350
53
  3
C4
350
54
  3
C5
350
55
  3
C6
350
56
  3
C7
350
57
  3
C8
350
58
  3
C9
350
59
  3
D0
350
5A
  3
D1
350
5B
  3
D2
350
5C
1001
ACAD
1000
TREAT_AS_HARD
1070
     0
  0
DICTIONARY
  5
2A
102
{ACAD_REACTORS
330
C
102
}
330
C
100
AcDbDictionary
  3
2DWIREFRAME
350
2F
  3
3D_HIDDEN
350
31
  3
3DWIREFRAME
350
30
  3
BASIC
350
32
  3
BRIGHTEN
350
36
  3
COLORCHANGE
350
3A
  3
CONCEPTUAL
350
34
  3
DIM
350
35
  3
FACEPATTERN
350
39
  3
FLAT
350
2B
  3
FLATWITHEDGES
350
2C
  3
GOURAUD
350
2D
  3
GOURAUDWITHEDGES
350
2E
  3
LINEPATTERN
350
38
  3
REALISTIC
350
33
  3
THICKEN
350
37
1001
ACAD
1000
TREAT_AS_HARD
1070
     0
  0
DICTIONARY
  5
5D1
102
{ACAD_REACTORS
330
C
102
}
330
C
100
AcDbDictionary
  3
CANNOSCALE
350
5D6
  3
PSOLHEIGHT
350
5D5
  3
PSOLWIDTH
350
5D4
1001
ACAD
1000
TREAT_AS_HARD
1070
     0
  0
MLINESTYLE
  5
18
102
{ACAD_REACTORS
330
17
102
}
330
17
100
AcDbMlineStyle
  2
Standard
 70
     0
  3

 62
   256
 51
90.0
 52
90.0
 71
     2
 49
0.5
 62
   256
  6
BYLAYER
 49
-0.5
 62
   256
  6
BYLAYER
  0
ACAD_PROXY_OBJECT
  5
3C
102
{ACAD_REACTORS
330
3B
102
}
330
3B
100
AcDbZombieObject
 90
      499
 91
      502
 93
       41
310
903313A31580
  0
ACAD_PROXY_OBJECT
  5
3D
102
{ACAD_REACTORS
330
3B
102
}
330
3B
100
AcDbZombieObject
 90
      499
 91
      502
 93
      105
310
903313A324000000000000004000
  0
ACAD_PROXY_OBJECT
  5
3E
102
{ACAD_REACTORS
330
3B
102
}
330
3B
100
AcDbZombieObject
 90
      499
 91
      502
 93
      105
310
903313A344000000000000104000
  0
ACAD_PROXY_OBJECT
  5
3F
102
{ACAD_REACTORS
330
3B
102
}
330
3B
100
AcDbZombieObject
 90
      499
 91
      502
 93
      105
310
903313A354000000000000144000
  0
ACAD_PROXY_OBJECT
  5
40
102
{ACAD_REACTORS
330
3B
102
}
330
3B
100
AcDbZombieObject
 90
      499
 91
      502
 93
      105
310
903313A384000000000000204000
  0
ACAD_PROXY_OBJECT
  5
41
102
{ACAD_REACTORS
330
3B
102
}
330
3B
100
AcDbZombieObject
 90
      499
 91
      502
 93
      113
310
904313A31304000000000000244000
  0
ACAD_PROXY_OBJECT
  5
42
102
{ACAD_REACTORS
330
3B
102
}
330
3B
100
AcDbZombieObject
 90
      499
 91
      502
 93
      113
310
904313A31364000000000000304000
  0
ACAD_PROXY_OBJECT
  5
43
102
{ACAD_REACTORS
330
3B
102
}
330
3B
100
AcDbZombieObject
 90
      499
 91
      502
 93
      113
310
904313A32304000000000000344000
  0
ACAD_PROXY_OBJECT
  5
44
102
{ACAD_REACTORS
330
3B
102
}
330
3B
100
AcDbZombieObject
 90
      499
 91
      502
 93
      113
310
904313A333040000000000003E4000
  0
ACAD_PROXY_OBJECT
  5
45
102
{ACAD_REACTORS
330
3B
102
}
330
3B
100
AcDbZombieObject
 90
      499
 91
      502
 93
      113
310
904313A34304000000000000444000
  0
ACAD_PROXY_OBJECT
  5
46
102
{ACAD_REACTORS
330
3B
102
}
330
3B
100
AcDbZombieObject
 90
      499
 91
      502
 93
      113
310
904313A35304000000000000494000
  0
ACAD_PROXY_OBJECT
  5
47
102
{ACAD_REACTORS
330
3B
102
}
330
3B
100
AcDbZombieObject
 90
      499
 91
      502
 93
      121
310
905313A3130304000000000000594000
  0
ACAD_PROXY_OBJECT
  5
48
102
{ACAD_REACTORS
330
3B
102
}
330
3B
100
AcDbZombieObject
 90
      499
 91
      502
 93
      105
310
903323A310000000000000010100
  0
ACAD_PROXY_OBJECT
  5
49
102
{ACAD_REACTORS
330
3B
102
}
330
3B
100
AcDbZombieObject
 90
      499
 91
      502
 93
      105
310
903343A310000000000000410100
  0
ACAD_PROXY_OBJECT
  5
4A
102
{ACAD_REACTORS
330
3B
102
}
330
3B
100
AcDbZombieObject
 90
      499
 91
      502
 93
      105
310
903383A310000000000000810100
  0
ACAD_PROXY_OBJECT
  5
4B
102
{ACAD_REACTORS
330
3B
102
}
330
3B
100
AcDbZombieObject
 90
      499
 91
      502
 93
      113
310
90431303A310000000000000910100
  0
ACAD_PROXY_OBJECT
  5
4C
102
{ACAD_REACTORS
330
3B
102
}
330
3B
100
AcDbZombieObject
 90
      499
 91
      502
 93
      121
310
9053130303A310000000000001650100
  0
ACAD_PROXY_OBJECT
  5
4D
102
{ACAD_REACTORS
330
3B
102
}
330
3B
100
AcDbZombieObject
 90
      499
 91
      502
 93
      257
310
90E312F31323822203D2031272D3022000000000000200FC000000000000284000
  0
ACAD_PROXY_OBJECT
  5
4E
102
{ACAD_REACTORS
330
3B
102
}
330
3B
100
AcDbZombieObject
 90
      499
 91
      502
 93
      249
310
90D312F363422203D2031272D3022000000000000240FC000000000000284000
  0
ACAD_PROXY_OBJECT
  5
4F
102
{ACAD_REACTORS
330
3B
102
}
330
3B
100
AcDbZombieObject
 90
      499
 91
      502
 93
      249
310
90D312F333222203D2031272D3022000000000000280FC000000000000284000
  0
ACAD_PROXY_OBJECT
  5
50
102
{ACAD_REACTORS
330
3B
102
}
330
3B
100
AcDbZombieObject
 90
      499
 91
      502
 93
      249
310
90D312F313622203D2031272D30220000000000002C0FC000000000000284000
  0
ACAD_PROXY_OBJECT
  5
51
102
{ACAD_REACTORS
330
3B
102
}
330
3B
100
AcDbZombieObject
 90
      499
 91
      502
 93
      249
310
90D332F333222203D2031272D30220000000000002E0FC000000000000284000
  0
ACAD_PROXY_OBJECT
  5
52
102
{ACAD_REACTORS
330
3B
102
}
330
3B
100
AcDbZombieObject
 90
      499
 91
      502
 93
      241
310
90C312F3822203D2031272D3022000000000000300FC000000000000284000
  0
ACAD_PROXY_OBJECT
  5
53
102
{ACAD_REACTORS
330
3B
102
}
330
3B
100
AcDbZombieObject
 90
      499
 91
      502
 93
      249
310
90D332F313622203D2031272D3022000000000000320FC000000000000284000
  0
ACAD_PROXY_OBJECT
  5
54
102
{ACAD_REACTORS
330
3B
102
}
330
3B
100
AcDbZombieObject
 90
      499
 91
      502
 93
      241
310
90C312F3422203D2031272D3022000000000000340FC000000000000284000
  0
ACAD_PROXY_OBJECT
  5
55
102
{ACAD_REACTORS
330
3B
102
}
330
3B
100
AcDbZombieObject
 90
      499
 91
      502
 93
      241
310
90C332F3822203D2031272D3022000000000000360FC000000000000284000
  0
ACAD_PROXY_OBJECT
  5
56
102
{ACAD_REACTORS
330
3B
102
}
330
3B
100
AcDbZombieObject
 90
      499
 91
      502
 93
      241
310
90C312F3222203D2031272D3022000000000000380FC000000000000284000
  0
ACAD_PROXY_OBJECT
  5
57
102
{ACAD_REACTORS
330
3B
102
}
330
3B
100
AcDbZombieObject
 90
      499
 91
      502
 93
      241
310
90C332F3422203D2031272D30220000000000003A0FC000000000000284000
  0
ACAD_PROXY_OBJECT
  5
58
102
{ACAD_REACTORS
330
3B
102
}
330
3B
100
AcDbZombieObject
 90
      499
 91
      502
 93
      161
310
90A3122203D2031272D30224000000000000284000
  0
ACAD_PROXY_OBJECT
  5
59
102
{ACAD_REACTORS
330
3B
102
}
330
3B
100
AcDbZombieObject
 90
      499
 91
      502
 93
      257
310
90E312D312F3222203D2031272D30220000000000003E0FC000000000000284000
  0
ACAD_PROXY_OBJECT
  5
5A
102
{ACAD_REACTORS
330
3B
102
}
330
3B
100
AcDbZombieObject
 90
      499
 91
      502
 93
      225
310
90A3322203D2031272D302200000000000002100000000000000284000
  0
ACAD_PROXY_OBJECT
  5
5B
102
{ACAD_REACTORS
330
3B
102
}
330
3B
100
AcDbZombieObject
 90
      499
 91
      502
 93
      225
310
90A3622203D2031272D302200000000000006100000000000000284000
  0
ACAD_PROXY_OBJECT
  5
5C
102
{ACAD_REACTORS
330
3B
102
}
330
3B
100
AcDbZombieObject
 90
      499
 91
      502
 93
      249
310
90D31272D3022203D2031272D30220000000000000A100000000000000284000
  0
ACAD_PROXY_OBJECT
  5
2F
102
{ACAD_REACTORS
330
2A
102
}
330
2A
100
AcDbZombieObject
 90
      499
 91
      501
 93
      436
310
42CC9915DA5C99599C985B595049028333333333333E3BF0000000000000FB0107901411070040501600405405064090741402480A0340
1001
ACAD
1000
AcDbSavedByObjectVersion
1070
     0
  0
ACAD_PROXY_OBJECT
  5
31
102
{ACAD_REACTORS
330
2A
102
}
330
2A
100
AcDbZombieObject
 90
      499
 91
      501
 93
      500
310
424CD108121A5919195B90640502408333333333333E3BF0000000000000FB01079024090700405020000000000001110200405405064090740C02480A0340
1001
ACAD
1000
AcDbSavedByObjectVersion
1070
     0
  0
ACAD_PROXY_OBJECT
  5
30
102
{ACAD_REACTORS
330
2A
102
}
330
2A
100
AcDbZombieObject
 90
      499
 91
      501
 93
      436
310
42CCD915DA5C99599C985B595059028333333333333E3BF0000000000000FB0107901411070040501600405405064090741402480A0340
1001
ACAD
1000
AcDbSavedByObjectVersion
1070
     0
  0
ACAD_PROXY_OBJECT
  5
32
102
{ACAD_REACTORS
330
2A
102
}
330
2A
100
AcDbZombieObject
 90
      499
 91
      501
 93
      388
310
4150985CDA58D07406404333333333333E3BF0000000000000FB0107A41107004050150841D405064090741402480A0350
1001
ACAD
1000
AcDbSavedByObjectVersion
1070
     0
  0
ACAD_PROXY_OBJECT
  5
36
102
{ACAD_REACTORS
330
2A
102
}
330
2A
100
AcDbZombieObject
 90
      499
 91
      501
 93
      428
310
42109C9A59DA1D195B90C409028333333333333E3BF0000000000000FB010790141107004050150841D405064090741402480A029950
1001
ACAD
1000
AcDbSavedByObjectVersion
1070
     0
  0
ACAD_PROXY_OBJECT
  5
3A
102
{ACAD_REACTORS
330
2A
102
}
330
2A
100
AcDbZombieObject
 90
      499
 91
      501
 93
      452
310
42D0DBDB1BDC90DA185B99D95104090240C333333333333E3BF0000000000000FB0108901411070040501508421405064090741402480A0350
1001
ACAD
1000
AcDbSavedByObjectVersion
1070
     0
  0
ACAD_PROXY_OBJECT
  5
34
102
{ACAD_REACTORS
330
2A
102
}
330
2A
100
AcDbZombieObject
 90
      499
 91
      501
 93
      500
310
4290DBDB98D95C1D1D585B10940D028333333333333E3BF0000000000000FB0107902409070040501000000000000111010841D405064090740C02480A0340
1001
ACAD
1000
AcDbSavedByObjectVersion
1070
     0
  0
ACAD_PROXY_OBJECT
  5
35
102
{ACAD_REACTORS
330
2A
102
}
330
2A
100
AcDbZombieObject
 90
      499
 91
      501
 93
      412
310
40D11A5B50B409028333333333333E3BF0000000000000FB010790141107004050150841D405064090741402480A02677FFFFFD0
1001
ACAD
1000
AcDbSavedByObjectVersion
1070
     0
  0
ACAD_PROXY_OBJECT
  5
39
102
{ACAD_REACTORS
330
2A
102
}
330
2A
100
AcDbZombieObject
 90
      499
 91
      501
 93
      444
310
42D19858D95C185D1D195C9B90F409028333333333333E3BF0000000000000FB010790141107004050150841D405064090741402480A0350
1001
ACAD
1000
AcDbSavedByObjectVersion
1070
     0
  0
ACAD_PROXY_OBJECT
  5
2B
102
{ACAD_REACTORS
330
2A
102
}
330
2A
100
AcDbZombieObject
 90
      499
 91
      501
 93
      388
310
41119B185D240901404333333333333E3BF0000000000000F9010740A41107004050150841D405064090741402480A1B50
1001
ACAD
1000
AcDbSavedByObjectVersion
1070
     0
  0
ACAD_PROXY_OBJECT
  5
2C
102
{ACAD_REACTORS
330
2A
102
}
330
2A
100
AcDbZombieObject
 90
      499
 91
      501
 93
      476
310
43519B185D15DA5D1A115919D95CD0140901404333333333333E3BF0000000000000F9010740901411070040501600405405064090741402480A1B50
1001
ACAD
1000
AcDbSavedByObjectVersion
1070
     0
  0
ACAD_PROXY_OBJECT
  5
2D
102
{ACAD_REACTORS
330
2A
102
}
330
2A
100
AcDbZombieObject
 90
      499
 91
      501
 93
      412
310
41D1DBDD5C985D5910240902404333333333333E3BF0000000000000F9010740A411070040501641D405064090741402480A1B50
1001
ACAD
1000
AcDbSavedByObjectVersion
1070
     0
  0
ACAD_PROXY_OBJECT
  5
2E
102
{ACAD_REACTORS
330
2A
102
}
330
2A
100
AcDbZombieObject
 90
      499
 91
      501
 93
      500
310
4411DBDD5C985D5915DA5D1A115919D95CD0340902404333333333333E3BF0000000000000F9010740901411070040501600405405064090741402480A1B50
1001
ACAD
1000
AcDbSavedByObjectVersion
1070
     0
  0
ACAD_PROXY_OBJECT
  5
38
102
{ACAD_REACTORS
330
2A
102
}
330
2A
100
AcDbZombieObject
 90
      499
 91
      501
 93
      444
310
42D31A5B995C185D1D195C9B90E409028333333333333E3BF0000000000000FB010790141107004050750841D405064090741402483A0350
1001
ACAD
1000
AcDbSavedByObjectVersion
1070
     0
  0
ACAD_PROXY_OBJECT
  5
33
102
{ACAD_REACTORS
330
2A
102
}
330
2A
100
AcDbZombieObject
 90
      499
 91
      501
 93
      420
310
425499585B1A5CDD1A58D08409028333333333333E3BF0000000000000FB01079019070040501508421405064090741402480A1B40
1001
ACAD
1000
AcDbSavedByObjectVersion
1070
     0
  0
ACAD_PROXY_OBJECT
  5
37
102
{ACAD_REACTORS
330
2A
102
}
330
2A
100
AcDbZombieObject
 90
      499
 91
      501
 93
      412
310
41D51A1A58DAD95B90D409028333333333333E3BF0000000000000FB010790141107004050150C41D405064090741402480A0350
1001
ACAD
1000
AcDbSavedByObjectVersion
1070
     0
  0
DICTIONARYVAR
  5
5D6
102
{ACAD_REACTORS
330
5D1
102
}
330
5D1
100
DictionaryVariables
280
     0
  1
1:1
  0
DICTIONARYVAR
  5
5D5
102
{ACAD_REACTORS
330
5D1
102
}
330
5D1
100
DictionaryVariables
280
     0
  1
80.000000
  0
DICTIONARYVAR
  5
5D4
102
{ACAD_REACTORS
330
5D1
102
}
330
5D1
100
DictionaryVariables
280
     0
  1
5.000000
  0
ENDSEC
  0
EOF
