  0
SECTION
  2
HEADER
  9
$ACADVER
  1
AC1012
  9
$DWGCODEPAGE
  3
ansi_932
  9
$INSBASE
 10
0.0
 20
0.0
 30
0.0
  9
$EXTMIN
 10
0.0
 20
0.0
 30
0.0
  9
$EXTMAX
 10
420.0
 20
297.0
 30
0.0
  9
$LIMMIN
 10
0.0
 20
0.0
  9
$LIMMAX
 10
420.0
 20
297.0
  9
$ORTHOMODE
 70
     0
  9
$REGENMODE
 70
     1
  9
$FILLMODE
 70
     1
  9
$QTEXTMODE
 70
     0
  9
$MIRRTEXT
 70
     1
  9
$DRAGMODE
 70
     2
  9
$LTSCALE
 40
1.0
  9
$OSMODE
 70
    37
  9
$ATTMODE
 70
     1
  9
$TEXTSIZE
 40
2.5
  9
$TRACEWID
 40
1.0
  9
$TEXTSTYLE
  7
STANDARD
  9
$CLAYER
  8
0
  9
$CELTYPE
  6
BYLAYER
  9
$CECOLOR
 62
   256
  9
$CELTSCALE
 40
1.0
  9
$DELOBJ
 70
     1
  9
$DISPSILH
 70
     0
  9
$DIMSCALE
 40
1.0
  9
$DIMASZ
 40
2.5
  9
$DIMEXO
 40
0.625
  9
$DIMDLI
 40
3.75
  9
$DIMRND
 40
0.0
  9
$DIMDLE
 40
0.0
  9
$DIMEXE
 40
1.25
  9
$DIMTP
 40
0.0
  9
$DIMTM
 40
0.0
  9
$DIMTXT
 40
2.5
  9
$DIMCEN
 40
2.5
  9
$DIMTSZ
 40
0.0
  9
$DIMTOL
 70
     0
  9
$DIMLIM
 70
     0
  9
$DIMTIH
 70
     0
  9
$DIMTOH
 70
     0
  9
$DIMSE1
 70
     0
  9
$DIMSE2
 70
     0
  9
$DIMTAD
 70
     1
  9
$DIMZIN
 70
     8
  9
$DIMBLK
  1

  9
$DIMASO
 70
     1
  9
$DIMSHO
 70
     1
  9
$DIMPOST
  1

  9
$DIMAPOST
  1

  9
$DIMALT
 70
     0
  9
$DIMALTD
 70
     3
  9
$DIMALTF
 40
0.0393700787
  9
$DIMLFAC
 40
1.0
  9
$DIMTOFL
 70
     1
  9
$DIMTVP
 40
0.0
  9
$DIMTIX
 70
     0
  9
$DIMSOXD
 70
     0
  9
$DIMSAH
 70
     0
  9
$DIMBLK1
  1

  9
$DIMBLK2
  1

  9
$DIMSTYLE
  2
ISO-25
  9
$DIMCLRD
 70
     0
  9
$DIMCLRE
 70
     0
  9
$DIMCLRT
 70
     0
  9
$DIMTFAC
 40
1.0
  9
$DIMGAP
 40
0.625
  9
$DIMJUST
 70
     0
  9
$DIMSD1
 70
     0
  9
$DIMSD2
 70
     0
  9
$DIMTOLJ
 70
     0
  9
$DIMTZIN
 70
     8
  9
$DIMALTZ
 70
     0
  9
$DIMALTTZ
 70
     0
  9
$DIMFIT
 70
     3
  9
$DIMUPT
 70
     0
  9
$DIMUNIT
 70
     2
  9
$DIMDEC
 70
     2
  9
$DIMTDEC
 70
     2
  9
$DIMALTU
 70
     2
  9
$DIMALTTD
 70
     3
  9
$DIMTXSTY
  7
STANDARD
  9
$DIMAUNIT
 70
     0
  9
$LUNITS
 70
     2
  9
$LUPREC
 70
     4
  9
$SKETCHINC
 40
1.0
  9
$FILLETRAD
 40
10.0
  9
$AUNITS
 70
     0
  9
$AUPREC
 70
     0
  9
$MENU
  1
.
  9
$ELEVATION
 40
0.0
  9
$PELEVATION
 40
0.0
  9
$THICKNESS
 40
0.0
  9
$LIMCHECK
 70
     0
  9
$CHAMFERA
 40
10.0
  9
$CHAMFERB
 40
10.0
  9
$CHAMFERC
 40
20.0
  9
$CHAMFERD
 40
0.0
  9
$SKPOLY
 70
     0
  9
$TDCREATE
 40
2459095.617447975
  9
$TDUPDATE
 40
2459095.617447986
  9
$TDINDWG
 40
0.0000000116
  9
$TDUSRTIMER
 40
0.0000000116
  9
$USRTIMER
 70
     1
  9
$ANGBASE
 50
0.0
  9
$ANGDIR
 70
     0
  9
$PDMODE
 70
     0
  9
$PDSIZE
 40
0.0
  9
$PLINEWID
 40
0.0
  9
$COORDS
 70
     1
  9
$SPLFRAME
 70
     0
  9
$SPLINETYPE
 70
     6
  9
$SPLINESEGS
 70
     8
  9
$ATTDIA
 70
     0
  9
$ATTREQ
 70
     1
  9
$HANDLING
 70
     1
  9
$HANDSEED
  5
65C
  9
$SURFTAB1
 70
     6
  9
$SURFTAB2
 70
     6
  9
$SURFTYPE
 70
     6
  9
$SURFU
 70
     6
  9
$SURFV
 70
     6
  9
$UCSNAME
  2

  9
$UCSORG
 10
0.0
 20
0.0
 30
0.0
  9
$UCSXDIR
 10
1.0
 20
0.0
 30
0.0
  9
$UCSYDIR
 10
0.0
 20
1.0
 30
0.0
  9
$PUCSNAME
  2

  9
$PUCSORG
 10
0.0
 20
0.0
 30
0.0
  9
$PUCSXDIR
 10
1.0
 20
0.0
 30
0.0
  9
$PUCSYDIR
 10
0.0
 20
1.0
 30
0.0
  9
$USERI1
 70
     0
  9
$USERI2
 70
     0
  9
$USERI3
 70
     0
  9
$USERI4
 70
     0
  9
$USERI5
 70
     0
  9
$USERR1
 40
0.0
  9
$USERR2
 40
0.0
  9
$USERR3
 40
0.0
  9
$USERR4
 40
0.0
  9
$USERR5
 40
0.0
  9
$WORLDVIEW
 70
     1
  9
$SHADEDGE
 70
     3
  9
$SHADEDIF
 70
    70
  9
$TILEMODE
 70
     1
  9
$MAXACTVP
 70
    64
  9
$PINSBASE
 10
0.0
 20
0.0
 30
0.0
  9
$PLIMCHECK
 70
     0
  9
$PEXTMIN
 10
0.0
 20
0.0
 30
0.0
  9
$PEXTMAX
 10
420.0
 20
297.0
 30
0.0
  9
$PLIMMIN
 10
0.0
 20
0.0
  9
$PLIMMAX
 10
420.0
 20
297.0
  9
$UNITMODE
 70
     0
  9
$VISRETAIN
 70
     1
  9
$PLINEGEN
 70
     0
  9
$PSLTSCALE
 70
     1
  9
$TREEDEPTH
 70
  3020
  9
$PICKSTYLE
 70
     1
  9
$CMLSTYLE
  2
STANDARD
  9
$CMLJUST
 70
     0
  9
$CMLSCALE
 40
20.0
  9
$SAVEIMAGES
 70
     1
  0
ENDSEC
  0
SECTION
  2
CLASSES
  0
CLASS
  1
ACDBDICTIONARYWDFLT
  2
AcDbDictionaryWithDefault
  3
ObjectDBX Classes
 90
    32768
280
     0
281
     0
  0
CLASS
  1
VISUALSTYLE
  2
AcDbVisualStyle
  3
ObjectDBX Classes
 90
     4095
280
     0
281
     0
  0
CLASS
  1
SCALE
  2
AcDbScale
  3
ObjectDBX Classes
 90
     1153
280
     0
281
     0
  0
CLASS
  1
DICTIONARYVAR
  2
AcDbDictionaryVar
  3
ObjectDBX Classes
 90
        0
280
     0
281
     0
  0
CLASS
  1
XRECORD
  2
AcDbXrecord
  3
AutoCAD 2000
 90
    32768
280
     0
281
     0
  0
CLASS
  1
LWPOLYLINE
  2
AcDbPolyline
  3
AutoCAD 2000
 90
    32768
280
     0
281
     1
  0
CLASS
  1
HATCH
  2
AcDbHatch
  3
AutoCAD 2000
 90
    32768
280
     0
281
     1
  0
CLASS
  1
ACDBPLACEHOLDER
  2
AcDbPlaceHolder
  3
ObjectDBX Classes
 90
        0
280
     0
281
     0
  0
CLASS
  1
LAYOUT
  2
AcDbLayout
  3
ObjectDBX Classes
 90
        0
280
     0
281
     0
  0
ENDSEC
  0
SECTION
  2
TABLES
  0
TABLE
  2
VPORT
  5
8
330
0
100
AcDbSymbolTable
 70
     1
  0
VPORT
  5
29
330
8
100
AcDbSymbolTableRecord
100
AcDbViewportTableRecord
  2
*ACTIVE
 70
     0
 10
0.0
 20
0.0
 11
1.0
 21
1.0
 12
344.1869158879
 22
148.5
 13
0.0
 23
0.0
 14
10.0
 24
10.0
 15
10.0
 25
10.0
 16
0.0
 26
0.0
 36
1.0
 17
0.0
 27
0.0
 37
0.0
 40
297.0
 41
1.9729729729
 42
50.0
 43
0.0
 44
0.0
 50
0.0
 51
0.0
 71
     0
 72
   100
 73
     1
 74
     3
 75
     0
 76
     0
 77
     0
 78
     0
  0
ENDTAB
  0
TABLE
  2
LTYPE
  5
5
330
0
100
AcDbSymbolTable
 70
     1
  0
LTYPE
  5
14
330
5
100
AcDbSymbolTableRecord
100
AcDbLinetypeTableRecord
  2
BYBLOCK
 70
     0
  3

 72
    65
 73
     0
 40
0.0
  0
LTYPE
  5
15
330
5
100
AcDbSymbolTableRecord
100
AcDbLinetypeTableRecord
  2
BYLAYER
 70
     0
  3

 72
    65
 73
     0
 40
0.0
  0
LTYPE
  5
16
330
5
100
AcDbSymbolTableRecord
100
AcDbLinetypeTableRecord
  2
CONTINUOUS
 70
     0
  3
Solid line
 72
    65
 73
     0
 40
0.0
  0
ENDTAB
  0
TABLE
  2
LAYER
  5
2
330
0
100
AcDbSymbolTable
 70
    45
  0
LAYER
  5
10
330
2
100
AcDbSymbolTableRecord
100
AcDbLayerTableRecord
  2
0
 70
     0
 62
     7
  6
CONTINUOUS
  0
LAYER
  5
5F
330
2
100
AcDbSymbolTableRecord
100
AcDbLayerTableRecord
  2
DEFAULT
 70
     0
 62
     7
  6
CONTINUOUS
  0
LAYER
  5
67
330
2
100
AcDbSymbolTableRecord
100
AcDbLayerTableRecord
  2
平座金_並形_110427_8_
 70
     0
 62
     7
  6
CONTINUOUS
  0
LAYER
  5
6A
330
2
100
AcDbSymbolTableRecord
100
AcDbLayerTableRecord
  2
バネ座金_2号_110427_呼
 70
     0
 62
     7
  6
CONTINUOUS
  0
LAYER
  5
6E
330
2
100
AcDbSymbolTableRecord
100
AcDbLayerTableRecord
  2
柔字穴付ナベ小ネジ110427_
 70
     0
 62
     7
  6
CONTINUOUS
  0
LAYER
  5
B4
330
2
100
AcDbSymbolTableRecord
100
AcDbLayerTableRecord
  2
ﾐﾗｰ棚板ブラケット150407
 70
     0
 62
     7
  6
CONTINUOUS
  0
LAYER
  5
C8
330
2
100
AcDbSymbolTableRecord
100
AcDbLayerTableRecord
  2
製品デカル150204_座り_ぶ
 70
     0
 62
     7
  6
CONTINUOUS
  0
LAYER
  5
CE
330
2
100
AcDbSymbolTableRecord
100
AcDbLayerTableRecord
  2
棚板ブラケット150407_ﾃﾞ
 70
     0
 62
     7
  6
CONTINUOUS
  0
LAYER
  5
E2
330
2
100
AcDbSymbolTableRecord
100
AcDbLayerTableRecord
  2
棚板本体160803_ﾃﾞﾌｫﾙ
 70
     0
 62
     7
  6
CONTINUOUS
  0
LAYER
  5
FF
330
2
100
AcDbSymbolTableRecord
100
AcDbLayerTableRecord
  2
支柱外160803_ﾃﾞﾌｫﾙﾄ
 70
     0
 62
     7
  6
CONTINUOUS
  0
LAYER
  5
106
330
2
100
AcDbSymbolTableRecord
100
AcDbLayerTableRecord
  2
ﾐﾗｰ支柱外160803_ﾃﾞﾌ
 70
     0
 62
     7
  6
CONTINUOUS
  0
LAYER
  5
10B
330
2
100
AcDbSymbolTableRecord
100
AcDbLayerTableRecord
  2
支柱カバー160803_ﾃﾞﾌｫ
 70
     0
 62
     7
  6
CONTINUOUS
  0
LAYER
  5
123
330
2
100
AcDbSymbolTableRecord
100
AcDbLayerTableRecord
  2
支柱連結パイプ160803_0
 70
     0
 62
     7
  6
CONTINUOUS
  0
LAYER
  5
126
330
2
100
AcDbSymbolTableRecord
100
AcDbLayerTableRecord
  2
アジャスター_大昌H150_12
 70
     0
 62
     7
  6
CONTINUOUS
  0
LAYER
  5
19D
330
2
100
AcDbSymbolTableRecord
100
AcDbLayerTableRecord
  2
転点防止金具_前_160803_
 70
     0
 62
     7
  6
CONTINUOUS
  0
LAYER
  5
1BB
330
2
100
AcDbSymbolTableRecord
100
AcDbLayerTableRecord
  2
回転軸140327_0
 70
     0
 62
     7
  6
CONTINUOUS
  0
LAYER
  5
1C8
330
2
100
AcDbSymbolTableRecord
100
AcDbLayerTableRecord
  2
スクリベット5102_10031
 70
     0
 62
     7
  6
CONTINUOUS
  0
LAYER
  5
229
330
2
100
AcDbSymbolTableRecord
100
AcDbLayerTableRecord
  2
ﾐﾗｰ支柱カバー160803_ﾃ
 70
     0
 62
     7
  6
CONTINUOUS
  0
LAYER
  5
242
330
2
100
AcDbSymbolTableRecord
100
AcDbLayerTableRecord
  2
ﾐﾗｰ転点防止金具_前_1608
 70
     0
 62
     7
  6
CONTINUOUS
  0
LAYER
  5
260
330
2
100
AcDbSymbolTableRecord
100
AcDbLayerTableRecord
  2
平座金_並形__6_13_1_0
 70
     0
 62
     7
  6
CONTINUOUS
  0
LAYER
  5
264
330
2
100
AcDbSymbolTableRecord
100
AcDbLayerTableRecord
  2
バネ座金_2号__呼び_6_6_
 70
     0
 62
     7
  6
CONTINUOUS
  0
LAYER
  5
268
330
2
100
AcDbSymbolTableRecord
100
AcDbLayerTableRecord
  2
六角穴付キャップボルト_M6_1
 70
     0
 62
     7
  6
CONTINUOUS
  0
LAYER
  5
27B
330
2
100
AcDbSymbolTableRecord
100
AcDbLayerTableRecord
  2
ベースパネル160803_ﾃﾞﾌ
 70
     0
 62
     7
  6
CONTINUOUS
  0
LAYER
  5
280
330
2
100
AcDbSymbolTableRecord
100
AcDbLayerTableRecord
  2
転点防止金具_後_160803_
 70
     0
 62
     7
  6
CONTINUOUS
  0
LAYER
  5
289
330
2
100
AcDbSymbolTableRecord
100
AcDbLayerTableRecord
  2
ﾐﾗｰ転点防止金具_後_1608
 70
     0
 62
     7
  6
CONTINUOUS
  0
LAYER
  5
28E
330
2
100
AcDbSymbolTableRecord
100
AcDbLayerTableRecord
  2
TE100N_S__150205
 70
     0
 62
     7
  6
CONTINUOUS
  0
LAYER
  5
2F3
330
2
100
AcDbSymbolTableRecord
100
AcDbLayerTableRecord
  2
DV1_ﾃﾞﾌｫﾙﾄ
 70
     0
 62
     7
  6
CONTINUOUS
  0
LAYER
  5
2F8
330
2
100
AcDbSymbolTableRecord
100
AcDbLayerTableRecord
  2
DV1_AUTO_-_HIDE
 70
     1
 62
    -7
  6
CONTINUOUS
  0
LAYER
  5
311
330
2
100
AcDbSymbolTableRecord
100
AcDbLayerTableRecord
  2
DV1_DEFAULT
 70
     0
 62
     7
  6
CONTINUOUS
  0
LAYER
  5
344
330
2
100
AcDbSymbolTableRecord
100
AcDbLayerTableRecord
  2
ﾐﾗｰIWBブラケット16080
 70
     0
 62
     7
  6
CONTINUOUS
  0
LAYER
  5
355
330
2
100
AcDbSymbolTableRecord
100
AcDbLayerTableRecord
  2
ﾐﾗｰIWB固定金具160803
 70
     0
 62
     7
  6
CONTINUOUS
  0
LAYER
  5
35C
330
2
100
AcDbSymbolTableRecord
100
AcDbLayerTableRecord
  2
IWB受金具160803_ﾃﾞﾌ_
 70
     0
 62
     7
  6
CONTINUOUS
  0
LAYER
  5
3A9
330
2
100
AcDbSymbolTableRecord
100
AcDbLayerTableRecord
  2
ブラインドリベット150204_
 70
     0
 62
     7
  6
CONTINUOUS
  0
LAYER
  5
412
330
2
100
AcDbSymbolTableRecord
100
AcDbLayerTableRecord
  2
ﾐﾗｰ支柱上蓋150407_ﾃﾞ
 70
     0
 62
     7
  6
CONTINUOUS
  0
LAYER
  5
47F
330
2
100
AcDbSymbolTableRecord
100
AcDbLayerTableRecord
  2
転点防止固定金具150407_0
 70
     0
 62
     7
  6
CONTINUOUS
  0
LAYER
  5
485
330
2
100
AcDbSymbolTableRecord
100
AcDbLayerTableRecord
  2
平座金_並形__8_18_1_6
 70
     0
 62
     7
  6
CONTINUOUS
  0
LAYER
  5
489
330
2
100
AcDbSymbolTableRecord
100
AcDbLayerTableRecord
  2
Uナット130620_M8__0
 70
     0
 62
     7
  6
CONTINUOUS
  0
LAYER
  5
4A7
330
2
100
AcDbSymbolTableRecord
100
AcDbLayerTableRecord
  2
皿ばね110221_DB-8__
 70
     0
 62
     7
  6
CONTINUOUS
  0
LAYER
  5
4AD
330
2
100
AcDbSymbolTableRecord
100
AcDbLayerTableRecord
  2
六角穴付ボタンボルト110427
 70
     0
 62
     7
  6
CONTINUOUS
  0
LAYER
  5
4B8
330
2
100
AcDbSymbolTableRecord
100
AcDbLayerTableRecord
  2
製品デカル150204_ロゴ_商
 70
     0
 62
     7
  6
CONTINUOUS
  0
LAYER
  5
4BE
330
2
100
AcDbSymbolTableRecord
100
AcDbLayerTableRecord
  2
CC-0822-10_0
 70
     0
 62
     7
  6
CONTINUOUS
  0
LAYER
  5
50F
330
2
100
AcDbSymbolTableRecord
100
AcDbLayerTableRecord
  2
ﾐﾗｰベースサイドカバー1608
 70
     0
 62
     7
  6
CONTINUOUS
  0
LAYER
  5
522
330
2
100
AcDbSymbolTableRecord
100
AcDbLayerTableRecord
  2
補強金具150407_ﾃﾞﾌｫﾙ
 70
     0
 62
     7
  6
CONTINUOUS
  0
LAYER
  5
52E
330
2
100
AcDbSymbolTableRecord
100
AcDbLayerTableRecord
  2
DV2_ﾃﾞﾌｫﾙﾄ
 70
     0
 62
     7
  6
CONTINUOUS
  0
LAYER
  5
536
330
2
100
AcDbSymbolTableRecord
100
AcDbLayerTableRecord
  2
DV2_AUTO_-_HIDE
 70
     1
 62
    -7
  6
CONTINUOUS
  0
ENDTAB
  0
TABLE
  2
STYLE
  5
3
330
0
100
AcDbSymbolTable
 70
     2
  0
STYLE
  5
11
330
3
100
AcDbSymbolTableRecord
100
AcDbTextStyleTableRecord
  2
STANDARD
 70
     0
 40
0.0
 41
1.0
 50
0.0
 71
     0
 42
2.5
  3
txt
  4

  0
STYLE
  5
5D
330
3
100
AcDbSymbolTableRecord
100
AcDbTextStyleTableRecord
  2
SEACAD_SEANSI_TTF
 70
     0
 40
0.0
 41
1.0
 50
0.0
 71
     0
 42
0.2
  3
seansi.ttf
  4

  0
ENDTAB
  0
TABLE
  2
VIEW
  5
6
330
0
100
AcDbSymbolTable
 70
     0
  0
ENDTAB
  0
TABLE
  2
UCS
  5
7
330
0
100
AcDbSymbolTable
 70
     0
  0
ENDTAB
  0
TABLE
  2
APPID
  5
9
330
0
100
AcDbSymbolTable
 70
     1
  0
APPID
  5
12
330
9
100
AcDbSymbolTableRecord
100
AcDbRegAppTableRecord
  2
ACAD
 70
     0
  0
ENDTAB
  0
TABLE
  2
DIMSTYLE
  5
A
330
0
100
AcDbSymbolTable
 70
     1
  0
DIMSTYLE
105
27
330
A
100
AcDbSymbolTableRecord
100
AcDbDimStyleTableRecord
  2
ISO-25
 70
     0
  3

  4

  5

  6

  7

 40
1.0
 41
2.5
 42
0.625
 43
3.75
 44
1.25
 45
0.0
 46
0.0
 47
0.0
 48
0.0
140
2.5
141
2.5
142
0.0
143
0.0393700787
144
1.0
145
0.0
146
1.0
147
0.625
 71
     0
 72
     0
 73
     0
 74
     0
 75
     0
 76
     0
 77
     1
 78
     8
170
     0
171
     3
172
     1
173
     0
174
     0
175
     0
176
     0
177
     0
178
     0
270
     2
271
     2
272
     2
273
     2
274
     3
340
11
275
     0
280
     0
281
     0
282
     0
283
     0
284
     8
285
     0
286
     0
287
     3
288
     0
  0
ENDTAB
  0
TABLE
  2
BLOCK_RECORD
  5
1
330
0
100
AcDbSymbolTable
 70
    10
  0
BLOCK_RECORD
  5
1F
330
1
100
AcDbSymbolTableRecord
100
AcDbBlockTableRecord
  2
*MODEL_SPACE
  0
BLOCK_RECORD
  5
1B
330
1
100
AcDbSymbolTableRecord
100
AcDbBlockTableRecord
  2
*PAPER_SPACE
  0
BLOCK_RECORD
  5
65
330
1
100
AcDbSymbolTableRecord
100
AcDbBlockTableRecord
  2
SE
  0
BLOCK_RECORD
  5
342
330
1
100
AcDbSymbolTableRecord
100
AcDbBlockTableRecord
  2
SE1
  0
BLOCK_RECORD
  5
55C
330
1
100
AcDbSymbolTableRecord
100
AcDbBlockTableRecord
  2
GDIMGGROUP
  0
BLOCK_RECORD
  5
566
330
1
100
AcDbSymbolTableRecord
100
AcDbBlockTableRecord
  2
GDIMGGROUP1
  0
BLOCK_RECORD
  5
570
330
1
100
AcDbSymbolTableRecord
100
AcDbBlockTableRecord
  2
GDIMGGROUP2
  0
BLOCK_RECORD
  5
57A
330
1
100
AcDbSymbolTableRecord
100
AcDbBlockTableRecord
  2
GDIMGGROUP3
  0
BLOCK_RECORD
  5
584
330
1
100
AcDbSymbolTableRecord
100
AcDbBlockTableRecord
  2
GDIMGGROUP4
  0
BLOCK_RECORD
  5
58E
330
1
100
AcDbSymbolTableRecord
100
AcDbBlockTableRecord
  2
GDIMGGROUP5
  0
BLOCK_RECORD
  5
598
330
1
100
AcDbSymbolTableRecord
100
AcDbBlockTableRecord
  2
GDIMGGROUP6
  0
ENDTAB
  0
ENDSEC
  0
SECTION
  2
BLOCKS
  0
BLOCK
  5
20
330
1F
100
AcDbEntity
  8
0
100
AcDbBlockBegin
  2
*MODEL_SPACE
 70
     0
 10
0.0
 20
0.0
 30
0.0
  3
*MODEL_SPACE
  1

  0
ENDBLK
  5
21
330
1F
100
AcDbEntity
  8
0
100
AcDbBlockEnd
  0
BLOCK
  5
1C
330
1B
100
AcDbEntity
 67
     1
  8
0
100
AcDbBlockBegin
  2
*PAPER_SPACE
 70
     0
 10
0.0
 20
0.0
 30
0.0
  3
*PAPER_SPACE
  1

  0
ENDBLK
  5
1D
330
1B
100
AcDbEntity
 67
     1
  8
0
100
AcDbBlockEnd
  0
BLOCK
  5
340
330
65
100
AcDbEntity
  8
0
100
AcDbBlockBegin
  2
SE
 70
     0
 10
0.0
 20
0.0
 30
0.0
  3
SE
  1

  0
LINE
  5
68
330
65
100
AcDbEntity
  8
平座金_並形_110427_8_
  6
CONTINUOUS
 62
     7
100
AcDbLine
 10
176.5205899052
 20
107.1285053269
 30
0.0
 11
176.5205899052
 21
105.3785053269
 31
0.0
  0
LINE
  5
69
330
65
100
AcDbEntity
  8
平座金_並形_110427_8_
  6
CONTINUOUS
 62
     7
100
AcDbLine
 10
176.5205899052
 20
105.3785053269
 30
0.0
 11
176.6805899052
 21
105.3785053269
 31
0.0
  0
LINE
  5
6B
330
65
100
AcDbEntity
  8
バネ座金_2号_110427_呼
  6
CONTINUOUS
 62
     7
100
AcDbLine
 10
176.3205899052
 20
105.5089112781
 30
0.0
 11
176.3205899052
 21
107.0485053269
 31
0.0
  0
LINE
  5
6C
330
65
100
AcDbEntity
  8
バネ座金_2号_110427_呼
  6
CONTINUOUS
 62
     7
100
AcDbLine
 10
176.5205899052
 20
105.5089112781
 30
0.0
 11
176.3205899052
 21
105.5089112781
 31
0.0
  0
LINE
  5
6D
330
65
100
AcDbEntity
  8
バネ座金_2号_110427_呼
  6
CONTINUOUS
 62
     7
100
AcDbLine
 10
176.5205899052
 20
107.0485053269
 30
0.0
 11
176.3205899052
 21
107.0485053269
 31
0.0
  0
LINE
  5
6F
330
65
100
AcDbEntity
  8
柔字穴付ナベ小ネジ110427_
  6
CONTINUOUS
 62
     7
100
AcDbLine
 10
175.8005899052
 20
106.2035053269
 30
0.0
 11
175.8005899052
 21
106.1148746452
 31
0.0
  0
LINE
  5
70
330
65
100
AcDbEntity
  8
柔字穴付ナベ小ネジ110427_
  6
CONTINUOUS
 62
     7
100
AcDbLine
 10
175.8005899052
 20
106.4421360086
 30
0.0
 11
175.8005899052
 21
106.3535053269
 31
0.0
  0
SPLINE
  5
71
330
65
100
AcDbEntity
  8
柔字穴付ナベ小ネジ110427_
  6
CONTINUOUS
 62
     7
100
AcDbSpline
210
0.0
220
0.0
230
1.0
 70
     8
 71
     3
 72
    10
 73
     6
 74
     0
 42
0.0000000665637782
 43
0.0000000001
 40
0.0
 40
0.0
 40
0.0
 40
0.0
 40
0.5
 40
0.5
 40
1.0
 40
1.0
 40
1.0
 40
1.0
 10
175.8480990748067
 20
106.2035053269169
 30
0.0
 10
175.8459322650768
 20
106.2284714550377
 30
0.0
 10
175.844872518701
 20
106.2536760036695
 30
0.0
 10
175.8448873777328
 20
106.3038578425392
 30
0.0
 10
175.8459524675502
 20
106.3287719730574
 30
0.0
 10
175.8480990748068
 20
106.3535053269157
 30
0.0
  0
LINE
  5
72
330
65
100
AcDbEntity
  8
柔字穴付ナベ小ネジ110427_
  6
CONTINUOUS
 62
     7
100
AcDbLine
 10
175.8005899052
 20
106.2035053269
 30
0.0
 11
175.8480990748
 21
106.2035053269
 31
0.0
  0
LINE
  5
73
330
65
100
AcDbEntity
  8
柔字穴付ナベ小ネジ110427_
  6
CONTINUOUS
 62
     7
100
AcDbLine
 10
175.8480990748
 20
106.3535053269
 30
0.0
 11
175.8005899052
 21
106.3535053269
 31
0.0
  0
SPLINE
  5
74
330
65
100
AcDbEntity
  8
柔字穴付ナベ小ネジ110427_
  6
CONTINUOUS
 62
     7
100
AcDbSpline
210
0.0
220
0.0
230
1.0
 70
     8
 71
     3
 72
    15
 73
    11
 74
     0
 42
0.0000000428529178
 43
0.0000000001
 40
0.0
 40
0.0
 40
0.0
 40
0.0
 40
0.5000000000000008
 40
0.5000000000000008
 40
0.5625000000000009
 40
0.5625000000000009
 40
0.625000000000001
 40
0.7500000000000006
 40
0.7500000000000006
 40
1.0
 40
1.0
 40
1.0
 40
1.0
 10
175.8480990748068
 20
105.8885053269156
 30
0.0
 10
175.8314876200286
 20
105.9253126931471
 30
0.0
 10
175.8192593501485
 20
105.9636104545241
 30
0.0
 10
175.8103464008169
 20
106.0083424706104
 30
0.0
 10
175.8095173266856
 20
106.0128378426617
 30
0.0
 10
175.8079250562307
 20
106.0220956343545
 30
0.0
 10
175.8057203087891
 20
106.035986622601
 30
0.0
 10
175.8040559589127
 20
106.0498902652852
 30
0.0
 10
175.8014198291206
 20
106.077713768498
 30
0.0
 10
175.8005899051778
 20
106.0962844897225
 30
0.0
 10
175.8005899051778
 20
106.1148746451961
 30
0.0
  0
LINE
  5
75
330
65
100
AcDbEntity
  8
柔字穴付ナベ小ネジ110427_
  6
CONTINUOUS
 62
     7
100
AcDbLine
 10
175.8448799482
 20
105.8885053269
 30
0.0
 11
175.8480990748
 21
105.8885053269
 31
0.0
  0
LINE
  5
76
330
65
100
AcDbEntity
  8
柔字穴付ナベ小ネジ110427_
  6
CONTINUOUS
 62
     7
100
AcDbLine
 10
175.8448799482
 20
106.6685053269
 30
0.0
 11
175.8480990748
 21
106.6685053269
 31
0.0
  0
SPLINE
  5
77
330
65
100
AcDbEntity
  8
柔字穴付ナベ小ネジ110427_
  6
CONTINUOUS
 62
     7
100
AcDbSpline
210
0.0
220
0.0
230
1.0
 70
     8
 71
     3
 72
    12
 73
     8
 74
     0
 42
0.0000000428540101
 43
0.0000000001
 40
0.0
 40
0.0
 40
0.0
 40
0.0
 40
0.25
 40
0.25
 40
0.5
 40
0.5
 40
1.0
 40
1.0
 40
1.0
 40
1.0
 10
175.8005899051778
 20
106.4421360086352
 30
0.0
 10
175.8005899051778
 20
106.4615447025934
 30
0.0
 10
175.8014947074018
 20
106.4809545895695
 30
0.0
 10
175.8053486927776
 20
106.5197770591193
 30
0.0
 10
175.8083426476968
 20
106.5394078156374
 30
0.0
 10
175.8202924258186
 20
106.5966458754486
 30
0.0
 10
175.8322187047827
 20
106.6333178852874
 30
0.0
 10
175.8480990748067
 20
106.6685053269157
 30
0.0
  0
LINE
  5
78
330
65
100
AcDbEntity
  8
柔字穴付ナベ小ネジ110427_
  6
CONTINUOUS
 62
     7
100
AcDbLine
 10
176.9405899052
 20
106.6785053269
 30
0.0
 11
176.8405899052
 21
106.6785053269
 31
0.0
  0
LINE
  5
79
330
65
100
AcDbEntity
  8
柔字穴付ナベ小ネジ110427_
  6
CONTINUOUS
 62
     7
100
AcDbLine
 10
176.8405899052
 20
105.8785053269
 30
0.0
 11
176.9405899052
 21
105.8785053269
 31
0.0
  0
ARC
  5
7A
330
65
100
AcDbEntity
  8
柔字穴付ナベ小ネジ110427_
  6
CONTINUOUS
 62
     7
100
AcDbCircle
 10
176.3205899052
 20
106.4585053269
 30
0.0
 40
0.5199999999999982
100
AcDbArc
 50
90.0
 51
156.2101225627
  0
ARC
  5
7B
330
65
100
AcDbEntity
  8
柔字穴付ナベ小ネジ110427_
  6
CONTINUOUS
 62
     7
100
AcDbCircle
 10
176.3205899052
 20
106.0985053269
 30
0.0
 40
0.5199999999999991
100
AcDbArc
 50
203.808686538
 51
270.0
  0
LINE
  5
7C
330
65
100
AcDbEntity
  8
平座金_並形_110427_8_
  6
CONTINUOUS
 62
     7
100
AcDbLine
 10
176.5205899052
 20
108.9285053269
 30
0.0
 11
176.5205899052
 21
107.1285053269
 31
0.0
  0
LINE
  5
7D
330
65
100
AcDbEntity
  8
平座金_並形_110427_8_
  6
CONTINUOUS
 62
     7
100
AcDbLine
 10
176.6805899052
 20
108.9285053269
 30
0.0
 11
176.5205899052
 21
108.9285053269
 31
0.0
  0
LINE
  5
7E
330
65
100
AcDbEntity
  8
平座金_並形_110427_8_
  6
CONTINUOUS
 62
     7
100
AcDbLine
 10
176.5205899052
 20
107.1285053269
 30
0.0
 11
176.6805899052
 21
107.1285053269
 31
0.0
  0
LINE
  5
7F
330
65
100
AcDbEntity
  8
バネ座金_2号_110427_呼
  6
CONTINUOUS
 62
     7
100
AcDbLine
 10
176.3205899052
 20
107.2589112781
 30
0.0
 11
176.3205899052
 21
108.7985053269
 31
0.0
  0
LINE
  5
80
330
65
100
AcDbEntity
  8
バネ座金_2号_110427_呼
  6
CONTINUOUS
 62
     7
100
AcDbLine
 10
176.5205899052
 20
107.2589112781
 30
0.0
 11
176.3205899052
 21
107.2589112781
 31
0.0
  0
LINE
  5
81
330
65
100
AcDbEntity
  8
バネ座金_2号_110427_呼
  6
CONTINUOUS
 62
     7
100
AcDbLine
 10
176.5205899052
 20
108.7985053269
 30
0.0
 11
176.3205899052
 21
108.7985053269
 31
0.0
  0
LINE
  5
82
330
65
100
AcDbEntity
  8
柔字穴付ナベ小ネジ110427_
  6
CONTINUOUS
 62
     7
100
AcDbLine
 10
175.8005899052
 20
107.9535053269
 30
0.0
 11
175.8005899052
 21
107.8648746452
 31
0.0
  0
LINE
  5
83
330
65
100
AcDbEntity
  8
柔字穴付ナベ小ネジ110427_
  6
CONTINUOUS
 62
     7
100
AcDbLine
 10
175.8005899052
 20
108.1921360086
 30
0.0
 11
175.8005899052
 21
108.1035053269
 31
0.0
  0
SPLINE
  5
84
330
65
100
AcDbEntity
  8
柔字穴付ナベ小ネジ110427_
  6
CONTINUOUS
 62
     7
100
AcDbSpline
210
0.0
220
0.0
230
1.0
 70
     8
 71
     3
 72
    10
 73
     6
 74
     0
 42
0.0000000665637782
 43
0.0000000001
 40
0.0
 40
0.0
 40
0.0
 40
0.0
 40
0.5
 40
0.5
 40
1.0
 40
1.0
 40
1.0
 40
1.0
 10
175.8480990748067
 20
107.9535053269169
 30
0.0
 10
175.8459322650768
 20
107.9784714550377
 30
0.0
 10
175.844872518701
 20
108.0036760036695
 30
0.0
 10
175.8448873777328
 20
108.0538578425392
 30
0.0
 10
175.8459524675502
 20
108.0787719730574
 30
0.0
 10
175.8480990748068
 20
108.1035053269157
 30
0.0
  0
LINE
  5
85
330
65
100
AcDbEntity
  8
柔字穴付ナベ小ネジ110427_
  6
CONTINUOUS
 62
     7
100
AcDbLine
 10
175.8005899052
 20
107.9535053269
 30
0.0
 11
175.8480990748
 21
107.9535053269
 31
0.0
  0
LINE
  5
86
330
65
100
AcDbEntity
  8
柔字穴付ナベ小ネジ110427_
  6
CONTINUOUS
 62
     7
100
AcDbLine
 10
175.8480990748
 20
108.1035053269
 30
0.0
 11
175.8005899052
 21
108.1035053269
 31
0.0
  0
SPLINE
  5
87
330
65
100
AcDbEntity
  8
柔字穴付ナベ小ネジ110427_
  6
CONTINUOUS
 62
     7
100
AcDbSpline
210
0.0
220
0.0
230
1.0
 70
     8
 71
     3
 72
    15
 73
    11
 74
     0
 42
0.0000000428529178
 43
0.0000000001
 40
0.0
 40
0.0
 40
0.0
 40
0.0
 40
0.5000000000000008
 40
0.5000000000000008
 40
0.5625000000000009
 40
0.5625000000000009
 40
0.625000000000001
 40
0.7500000000000006
 40
0.7500000000000006
 40
1.0
 40
1.0
 40
1.0
 40
1.0
 10
175.8480990748068
 20
107.6385053269157
 30
0.0
 10
175.8314876200286
 20
107.6753126931471
 30
0.0
 10
175.8192593501485
 20
107.7136104545241
 30
0.0
 10
175.8103464008169
 20
107.7583424706104
 30
0.0
 10
175.8095173266856
 20
107.7628378426617
 30
0.0
 10
175.8079250562307
 20
107.7720956343545
 30
0.0
 10
175.8057203087891
 20
107.785986622601
 30
0.0
 10
175.8040559589127
 20
107.7998902652852
 30
0.0
 10
175.8014198291206
 20
107.827713768498
 30
0.0
 10
175.8005899051778
 20
107.8462844897225
 30
0.0
 10
175.8005899051778
 20
107.8648746451961
 30
0.0
  0
LINE
  5
88
330
65
100
AcDbEntity
  8
柔字穴付ナベ小ネジ110427_
  6
CONTINUOUS
 62
     7
100
AcDbLine
 10
175.8448799482
 20
107.6385053269
 30
0.0
 11
175.8480990748
 21
107.6385053269
 31
0.0
  0
LINE
  5
89
330
65
100
AcDbEntity
  8
柔字穴付ナベ小ネジ110427_
  6
CONTINUOUS
 62
     7
100
AcDbLine
 10
175.8448799482
 20
108.4185053269
 30
0.0
 11
175.8480990748
 21
108.4185053269
 31
0.0
  0
SPLINE
  5
8A
330
65
100
AcDbEntity
  8
柔字穴付ナベ小ネジ110427_
  6
CONTINUOUS
 62
     7
100
AcDbSpline
210
0.0
220
0.0
230
1.0
 70
     8
 71
     3
 72
    12
 73
     8
 74
     0
 42
0.0000000428540101
 43
0.0000000001
 40
0.0
 40
0.0
 40
0.0
 40
0.0
 40
0.25
 40
0.25
 40
0.5
 40
0.5
 40
1.0
 40
1.0
 40
1.0
 40
1.0
 10
175.8005899051778
 20
108.1921360086352
 30
0.0
 10
175.8005899051778
 20
108.2115447025934
 30
0.0
 10
175.8014947074018
 20
108.2309545895695
 30
0.0
 10
175.8053486927776
 20
108.2697770591193
 30
0.0
 10
175.8083426476968
 20
108.2894078156374
 30
0.0
 10
175.8202924258186
 20
108.3466458754486
 30
0.0
 10
175.8322187047827
 20
108.3833178852875
 30
0.0
 10
175.8480990748067
 20
108.4185053269157
 30
0.0
  0
LINE
  5
8B
330
65
100
AcDbEntity
  8
柔字穴付ナベ小ネジ110427_
  6
CONTINUOUS
 62
     7
100
AcDbLine
 10
176.9405899052
 20
108.4285053269
 30
0.0
 11
176.8405899052
 21
108.4285053269
 31
0.0
  0
LINE
  5
8C
330
65
100
AcDbEntity
  8
柔字穴付ナベ小ネジ110427_
  6
CONTINUOUS
 62
     7
100
AcDbLine
 10
176.8405899052
 20
107.6285053269
 30
0.0
 11
176.9405899052
 21
107.6285053269
 31
0.0
  0
ARC
  5
8D
330
65
100
AcDbEntity
  8
柔字穴付ナベ小ネジ110427_
  6
CONTINUOUS
 62
     7
100
AcDbCircle
 10
176.3205899052
 20
108.2085053269
 30
0.0
 40
0.5199999999999982
100
AcDbArc
 50
90.0
 51
156.2101225627
  0
ARC
  5
8E
330
65
100
AcDbEntity
  8
柔字穴付ナベ小ネジ110427_
  6
CONTINUOUS
 62
     7
100
AcDbCircle
 10
176.3205899052
 20
107.8485053269
 30
0.0
 40
0.5199999999999968
100
AcDbArc
 50
203.808686538
 51
270.0
  0
LINE
  5
8F
330
65
100
AcDbEntity
  8
平座金_並形_110427_8_
  6
CONTINUOUS
 62
     7
100
AcDbLine
 10
98.8205899052
 20
107.1285053269
 30
0.0
 11
98.8205899052
 21
108.9285053269
 31
0.0
  0
LINE
  5
90
330
65
100
AcDbEntity
  8
平座金_並形_110427_8_
  6
CONTINUOUS
 62
     7
100
AcDbLine
 10
98.6605899052
 20
107.1285053269
 30
0.0
 11
98.8205899052
 21
107.1285053269
 31
0.0
  0
LINE
  5
91
330
65
100
AcDbEntity
  8
平座金_並形_110427_8_
  6
CONTINUOUS
 62
     7
100
AcDbLine
 10
98.8205899052
 20
108.9285053269
 30
0.0
 11
98.6605899052
 21
108.9285053269
 31
0.0
  0
LINE
  5
92
330
65
100
AcDbEntity
  8
バネ座金_2号_110427_呼
  6
CONTINUOUS
 62
     7
100
AcDbLine
 10
99.0205899052
 20
107.2589112781
 30
0.0
 11
99.0205899052
 21
108.7985053269
 31
0.0
  0
LINE
  5
93
330
65
100
AcDbEntity
  8
バネ座金_2号_110427_呼
  6
CONTINUOUS
 62
     7
100
AcDbLine
 10
99.0205899052
 20
107.2589112781
 30
0.0
 11
98.8205899052
 21
107.2589112781
 31
0.0
  0
LINE
  5
94
330
65
100
AcDbEntity
  8
バネ座金_2号_110427_呼
  6
CONTINUOUS
 62
     7
100
AcDbLine
 10
99.0205899052
 20
108.7985053269
 30
0.0
 11
98.8205899052
 21
108.7985053269
 31
0.0
  0
LINE
  5
95
330
65
100
AcDbEntity
  8
柔字穴付ナベ小ネジ110427_
  6
CONTINUOUS
 62
     7
100
AcDbLine
 10
99.5405899052
 20
107.8648746452
 30
0.0
 11
99.5405899052
 21
107.9535053269
 31
0.0
  0
LINE
  5
96
330
65
100
AcDbEntity
  8
柔字穴付ナベ小ネジ110427_
  6
CONTINUOUS
 62
     7
100
AcDbLine
 10
99.5405899052
 20
108.1035053269
 30
0.0
 11
99.5405899052
 21
108.1921360086
 31
0.0
  0
LINE
  5
97
330
65
100
AcDbEntity
  8
柔字穴付ナベ小ネジ110427_
  6
CONTINUOUS
 62
     7
100
AcDbLine
 10
99.4962998621
 20
107.6385053269
 30
0.0
 11
99.4930807355
 21
107.6385053269
 31
0.0
  0
SPLINE
  5
98
330
65
100
AcDbEntity
  8
柔字穴付ナベ小ネジ110427_
  6
CONTINUOUS
 62
     7
100
AcDbSpline
210
0.0
220
0.0
230
1.0
 70
     8
 71
     3
 72
    12
 73
     8
 74
     0
 42
0.0000000428540101
 43
0.0000000001
 40
0.0
 40
0.0
 40
0.0
 40
0.0
 40
0.25
 40
0.25
 40
0.5
 40
0.5
 40
1.0
 40
1.0
 40
1.0
 40
1.0
 10
99.54058990517775
 20
107.8648746451961
 30
0.0
 10
99.54058990517775
 20
107.8454659512379
 30
0.0
 10
99.53968510295375
 20
107.8260560642619
 30
0.0
 10
99.53583111757794
 20
107.787233594712
 30
0.0
 10
99.53283716265871
 20
107.7676028381939
 30
0.0
 10
99.52088738453688
 20
107.7103647783827
 30
0.0
 10
99.50896110557284
 20
107.6736927685439
 30
0.0
 10
99.4930807355488
 20
107.6385053269157
 30
0.0
  0
LINE
  5
99
330
65
100
AcDbEntity
  8
柔字穴付ナベ小ネジ110427_
  6
CONTINUOUS
 62
     7
100
AcDbLine
 10
99.4930807355
 20
107.9535053269
 30
0.0
 11
99.5405899052
 21
107.9535053269
 31
0.0
  0
SPLINE
  5
9A
330
65
100
AcDbEntity
  8
柔字穴付ナベ小ネジ110427_
  6
CONTINUOUS
 62
     7
100
AcDbSpline
210
0.0
220
0.0
230
1.0
 70
     8
 71
     3
 72
    10
 73
     6
 74
     0
 42
0.0000000665637782
 43
0.0000000001
 40
0.0
 40
0.0
 40
0.0
 40
0.0
 40
0.5
 40
0.5
 40
1.0
 40
1.0
 40
1.0
 40
1.0
 10
99.4930807355488
 20
108.1035053269157
 30
0.0
 10
99.4952475452786
 20
108.0785391987947
 30
0.0
 10
99.49630729165452
 20
108.0533346501627
 30
0.0
 10
99.49629243262267
 20
108.0031528112925
 30
0.0
 10
99.49522734280531
 20
107.9782386807742
 30
0.0
 10
99.4930807355487
 20
107.9535053269157
 30
0.0
  0
LINE
  5
9B
330
65
100
AcDbEntity
  8
柔字穴付ナベ小ネジ110427_
  6
CONTINUOUS
 62
     7
100
AcDbLine
 10
99.5405899052
 20
108.1035053269
 30
0.0
 11
99.4930807355
 21
108.1035053269
 31
0.0
  0
SPLINE
  5
9C
330
65
100
AcDbEntity
  8
柔字穴付ナベ小ネジ110427_
  6
CONTINUOUS
 62
     7
100
AcDbSpline
210
0.0
220
0.0
230
1.0
 70
     8
 71
     3
 72
    15
 73
    11
 74
     0
 42
0.0000000428529178
 43
0.0000000001
 40
0.0
 40
0.0
 40
0.0
 40
0.0
 40
0.499999999999999
 40
0.499999999999999
 40
0.5624999999999989
 40
0.5624999999999989
 40
0.6249999999999988
 40
0.7499999999999991
 40
0.7499999999999991
 40
1.0
 40
1.0
 40
1.0
 40
1.0
 10
99.4930807355487
 20
108.4185053269157
 30
0.0
 10
99.50969219032693
 20
108.3816979606842
 30
0.0
 10
99.52192046020694
 20
108.3434001993072
 30
0.0
 10
99.53083340953862
 20
108.298668183221
 30
0.0
 10
99.53166248366988
 20
108.2941728111697
 30
0.0
 10
99.53325475412478
 20
108.2849150194769
 30
0.0
 10
99.53545950156635
 20
108.2710240312304
 30
0.0
 10
99.53712385144281
 20
108.2571203885461
 30
0.0
 10
99.53975998123491
 20
108.2292968853334
 30
0.0
 10
99.54058990517775
 20
108.2107261641089
 30
0.0
 10
99.54058990517775
 20
108.1921360086352
 30
0.0
  0
LINE
  5
9D
330
65
100
AcDbEntity
  8
柔字穴付ナベ小ネジ110427_
  6
CONTINUOUS
 62
     7
100
AcDbLine
 10
99.4962998621
 20
108.4185053269
 30
0.0
 11
99.4930807355
 21
108.4185053269
 31
0.0
  0
LINE
  5
9E
330
65
100
AcDbEntity
  8
柔字穴付ナベ小ネジ110427_
  6
CONTINUOUS
 62
     7
100
AcDbLine
 10
98.4005899052
 20
107.6285053269
 30
0.0
 11
98.5005899052
 21
107.6285053269
 31
0.0
  0
LINE
  5
9F
330
65
100
AcDbEntity
  8
柔字穴付ナベ小ネジ110427_
  6
CONTINUOUS
 62
     7
100
AcDbLine
 10
98.5005899052
 20
108.4285053269
 30
0.0
 11
98.4005899052
 21
108.4285053269
 31
0.0
  0
ARC
  5
A0
330
65
100
AcDbEntity
  8
柔字穴付ナベ小ネジ110427_
  6
CONTINUOUS
 62
     7
100
AcDbCircle
 10
99.0205899052
 20
107.8485053269
 30
0.0
 40
0.5199999999999982
100
AcDbArc
 50
270.0
 51
336.2101225627
  0
ARC
  5
A1
330
65
100
AcDbEntity
  8
柔字穴付ナベ小ネジ110427_
  6
CONTINUOUS
 62
     7
100
AcDbCircle
 10
99.0205899052
 20
108.2085053269
 30
0.0
 40
0.5199999999999968
100
AcDbArc
 50
23.808686538
 51
90.0
  0
LINE
  5
A2
330
65
100
AcDbEntity
  8
平座金_並形_110427_8_
  6
CONTINUOUS
 62
     7
100
AcDbLine
 10
98.8205899052
 20
107.1285053269
 30
0.0
 11
98.8205899052
 21
105.3785053269
 31
0.0
  0
LINE
  5
A3
330
65
100
AcDbEntity
  8
平座金_並形_110427_8_
  6
CONTINUOUS
 62
     7
100
AcDbLine
 10
98.6605899052
 20
105.3785053269
 30
0.0
 11
98.8205899052
 21
105.3785053269
 31
0.0
  0
LINE
  5
A4
330
65
100
AcDbEntity
  8
バネ座金_2号_110427_呼
  6
CONTINUOUS
 62
     7
100
AcDbLine
 10
99.0205899052
 20
107.0485053269
 30
0.0
 11
99.0205899052
 21
105.5085053269
 31
0.0
  0
LINE
  5
A5
330
65
100
AcDbEntity
  8
バネ座金_2号_110427_呼
  6
CONTINUOUS
 62
     7
100
AcDbLine
 10
98.8205899052
 20
105.5085053269
 30
0.0
 11
99.0205899052
 21
105.5085053269
 31
0.0
  0
LINE
  5
A6
330
65
100
AcDbEntity
  8
バネ座金_2号_110427_呼
  6
CONTINUOUS
 62
     7
100
AcDbLine
 10
99.0205899052
 20
107.0485053269
 30
0.0
 11
98.8205899052
 21
107.0485053269
 31
0.0
  0
LINE
  5
A7
330
65
100
AcDbEntity
  8
柔字穴付ナベ小ネジ110427_
  6
CONTINUOUS
 62
     7
100
AcDbLine
 10
99.5405899052
 20
106.1148746452
 30
0.0
 11
99.5405899052
 21
106.2035053269
 31
0.0
  0
LINE
  5
A8
330
65
100
AcDbEntity
  8
柔字穴付ナベ小ネジ110427_
  6
CONTINUOUS
 62
     7
100
AcDbLine
 10
99.5405899052
 20
106.3535053269
 30
0.0
 11
99.5405899052
 21
106.4421360086
 31
0.0
  0
LINE
  5
A9
330
65
100
AcDbEntity
  8
柔字穴付ナベ小ネジ110427_
  6
CONTINUOUS
 62
     7
100
AcDbLine
 10
99.4962998621
 20
106.6685053269
 30
0.0
 11
99.4930807355
 21
106.6685053269
 31
0.0
  0
SPLINE
  5
AA
330
65
100
AcDbEntity
  8
柔字穴付ナベ小ネジ110427_
  6
CONTINUOUS
 62
     7
100
AcDbSpline
210
0.0
220
0.0
230
1.0
 70
     8
 71
     3
 72
    15
 73
    11
 74
     0
 42
0.0000000428529178
 43
0.0000000001
 40
0.0
 40
0.0
 40
0.0
 40
0.0
 40
0.5000000000000008
 40
0.5000000000000008
 40
0.5625000000000009
 40
0.5625000000000009
 40
0.625000000000001
 40
0.7500000000000006
 40
0.7500000000000006
 40
1.0
 40
1.0
 40
1.0
 40
1.0
 10
99.4930807355487
 20
106.6685053269157
 30
0.0
 10
99.50969219032693
 20
106.6316979606842
 30
0.0
 10
99.52192046020694
 20
106.5934001993072
 30
0.0
 10
99.53083340953862
 20
106.548668183221
 30
0.0
 10
99.53166248366988
 20
106.5441728111696
 30
0.0
 10
99.53325475412478
 20
106.5349150194769
 30
0.0
 10
99.53545950156635
 20
106.5210240312304
 30
0.0
 10
99.53712385144281
 20
106.5071203885461
 30
0.0
 10
99.53975998123491
 20
106.4792968853334
 30
0.0
 10
99.54058990517775
 20
106.4607261641088
 30
0.0
 10
99.54058990517775
 20
106.4421360086352
 30
0.0
  0
LINE
  5
AB
330
65
100
AcDbEntity
  8
柔字穴付ナベ小ネジ110427_
  6
CONTINUOUS
 62
     7
100
AcDbLine
 10
99.4962998621
 20
105.8885053269
 30
0.0
 11
99.4930807355
 21
105.8885053269
 31
0.0
  0
SPLINE
  5
AC
330
65
100
AcDbEntity
  8
柔字穴付ナベ小ネジ110427_
  6
CONTINUOUS
 62
     7
100
AcDbSpline
210
0.0
220
0.0
230
1.0
 70
     8
 71
     3
 72
    12
 73
     8
 74
     0
 42
0.0000000428540101
 43
0.0000000001
 40
0.0
 40
0.0
 40
0.0
 40
0.0
 40
0.2499999999999999
 40
0.2499999999999999
 40
0.4999999999999999
 40
0.4999999999999999
 40
1.0
 40
1.0
 40
1.0
 40
1.0
 10
99.54058990517775
 20
106.1148746451961
 30
0.0
 10
99.54058990517775
 20
106.0954659512379
 30
0.0
 10
99.53968510295375
 20
106.0760560642619
 30
0.0
 10
99.53583111757794
 20
106.037233594712
 30
0.0
 10
99.53283716265871
 20
106.0176028381939
 30
0.0
 10
99.52088738453688
 20
105.9603647783827
 30
0.0
 10
99.50896110557284
 20
105.9236927685439
 30
0.0
 10
99.4930807355488
 20
105.8885053269156
 30
0.0
  0
LINE
  5
AD
330
65
100
AcDbEntity
  8
柔字穴付ナベ小ネジ110427_
  6
CONTINUOUS
 62
     7
100
AcDbLine
 10
99.4930807355
 20
106.2035053269
 30
0.0
 11
99.5405899052
 21
106.2035053269
 31
0.0
  0
SPLINE
  5
AE
330
65
100
AcDbEntity
  8
柔字穴付ナベ小ネジ110427_
  6
CONTINUOUS
 62
     7
100
AcDbSpline
210
0.0
220
0.0
230
1.0
 70
     8
 71
     3
 72
    10
 73
     6
 74
     0
 42
0.0000000665637782
 43
0.0000000001
 40
0.0
 40
0.0
 40
0.0
 40
0.0
 40
0.5
 40
0.5
 40
1.0
 40
1.0
 40
1.0
 40
1.0
 10
99.4930807355488
 20
106.3535053269157
 30
0.0
 10
99.4952475452786
 20
106.3285391987946
 30
0.0
 10
99.49630729165452
 20
106.3033346501627
 30
0.0
 10
99.49629243262267
 20
106.2531528112925
 30
0.0
 10
99.49522734280531
 20
106.2282386807742
 30
0.0
 10
99.4930807355487
 20
106.2035053269157
 30
0.0
  0
LINE
  5
AF
330
65
100
AcDbEntity
  8
柔字穴付ナベ小ネジ110427_
  6
CONTINUOUS
 62
     7
100
AcDbLine
 10
99.5405899052
 20
106.3535053269
 30
0.0
 11
99.4930807355
 21
106.3535053269
 31
0.0
  0
LINE
  5
B0
330
65
100
AcDbEntity
  8
柔字穴付ナベ小ネジ110427_
  6
CONTINUOUS
 62
     7
100
AcDbLine
 10
98.4005899052
 20
105.8785053269
 30
0.0
 11
98.5005899052
 21
105.8785053269
 31
0.0
  0
LINE
  5
B1
330
65
100
AcDbEntity
  8
柔字穴付ナベ小ネジ110427_
  6
CONTINUOUS
 62
     7
100
AcDbLine
 10
98.5005899052
 20
106.6785053269
 30
0.0
 11
98.4005899052
 21
106.6785053269
 31
0.0
  0
ARC
  5
B2
330
65
100
AcDbEntity
  8
柔字穴付ナベ小ネジ110427_
  6
CONTINUOUS
 62
     7
100
AcDbCircle
 10
99.0205899052
 20
106.0985053269
 30
0.0
 40
0.5199999999999982
100
AcDbArc
 50
270.0
 51
336.2101225627
  0
ARC
  5
B3
330
65
100
AcDbEntity
  8
柔字穴付ナベ小ネジ110427_
  6
CONTINUOUS
 62
     7
100
AcDbCircle
 10
99.0205899052
 20
106.4585053269
 30
0.0
 40
0.5199999999999991
100
AcDbArc
 50
23.808686538
 51
90.0
  0
LINE
  5
B5
330
65
100
AcDbEntity
  8
ﾐﾗｰ棚板ブラケット150407
  6
CONTINUOUS
 62
     7
100
AcDbLine
 10
175.9405899052
 20
110.0285053269
 30
0.0
 11
175.9405899052
 21
109.8485053269
 31
0.0
  0
LINE
  5
B6
330
65
100
AcDbEntity
  8
ﾐﾗｰ棚板ブラケット150407
  6
CONTINUOUS
 62
     7
100
AcDbLine
 10
175.7805899052
 20
109.8485053269
 30
0.0
 11
175.7805899052
 21
103.6923762947
 31
0.0
  0
LINE
  5
B7
330
65
100
AcDbEntity
  8
ﾐﾗｰ棚板ブラケット150407
  6
CONTINUOUS
 62
     7
100
AcDbLine
 10
175.7805899052
 20
110.0285053269
 30
0.0
 11
175.7805899052
 21
109.8485053269
 31
0.0
  0
LINE
  5
B8
330
65
100
AcDbEntity
  8
ﾐﾗｰ棚板ブラケット150407
  6
CONTINUOUS
 62
     7
100
AcDbLine
 10
176.6805899052
 20
109.8485053269
 30
0.0
 11
176.6730388757
 21
109.8485053269
 31
0.0
  0
LINE
  5
B9
330
65
100
AcDbEntity
  8
ﾐﾗｰ棚板ブラケット150407
  6
CONTINUOUS
 62
     7
100
AcDbLine
 10
175.8274528202
 20
109.8485053269
 30
0.0
 11
176.6730388757
 21
109.8485053269
 31
0.0
  0
LINE
  5
BA
330
65
100
AcDbEntity
  8
ﾐﾗｰ棚板ブラケット150407
  6
CONTINUOUS
 62
     7
100
AcDbLine
 10
176.6730388757
 20
109.8485053269
 30
0.0
 11
176.6730388757
 21
108.9285053269
 31
0.0
  0
LINE
  5
BB
330
65
100
AcDbEntity
  8
ﾐﾗｰ棚板ブラケット150407
  6
CONTINUOUS
 62
     7
100
AcDbLine
 10
176.6730388757
 20
105.3785053269
 30
0.0
 11
176.6730388757
 21
103.4632497506
 31
0.0
  0
LINE
  5
BC
330
65
100
AcDbEntity
  8
ﾐﾗｰ棚板ブラケット150407
  6
CONTINUOUS
 62
     7
100
AcDbLine
 10
176.6730388757
 20
103.4632497506
 30
0.0
 11
175.8274528202
 21
103.6923762947
 31
0.0
  0
ELLIPSE
  5
BD
330
65
100
AcDbEntity
  8
ﾐﾗｰ棚板ブラケット150407
  6
CONTINUOUS
 62
     7
100
AcDbEllipse
 10
176.6805899052
 20
103.4612036652
 30
0.0
 11
0.01067697089628395
 21
-0.001473101238647079
 31
0.0
210
0.0
220
0.0
230
1.0
 40
0.1329977828
 41
1.589143966348103
 42
2.374542129740802
  0
LINE
  5
BE
330
65
100
AcDbEntity
  8
ﾐﾗｰ棚板ブラケット150407
  6
CONTINUOUS
 62
     7
100
AcDbLine
 10
175.7805899052
 20
103.6923762947
 30
0.0
 11
175.8274528202
 21
103.6923762947
 31
0.0
  0
LINE
  5
BF
330
65
100
AcDbEntity
  8
ﾐﾗｰ棚板ブラケット150407
  6
CONTINUOUS
 62
     7
100
AcDbLine
 10
175.8274528202
 20
109.8485053269
 30
0.0
 11
175.7805899052
 21
109.8485053269
 31
0.0
  0
LINE
  5
C0
330
65
100
AcDbEntity
  8
ﾐﾗｰ棚板ブラケット150407
  6
CONTINUOUS
 62
     7
100
AcDbLine
 10
176.6805899052
 20
103.4485053269
 30
0.0
 11
176.8405899052
 21
103.4485053269
 31
0.0
  0
LINE
  5
C1
330
65
100
AcDbEntity
  8
ﾐﾗｰ棚板ブラケット150407
  6
CONTINUOUS
 62
     7
100
AcDbLine
 10
176.8405899052
 20
109.3485053269
 30
0.0
 11
176.8405899052
 21
103.9485053269
 31
0.0
  0
LINE
  5
C2
330
65
100
AcDbEntity
  8
ﾐﾗｰ棚板ブラケット150407
  6
CONTINUOUS
 62
     7
100
AcDbLine
 10
176.8405899052
 20
109.3485053269
 30
0.0
 11
176.8405899052
 21
109.8485053269
 31
0.0
  0
LINE
  5
C3
330
65
100
AcDbEntity
  8
ﾐﾗｰ棚板ブラケット150407
  6
CONTINUOUS
 62
     7
100
AcDbLine
 10
176.8405899052
 20
103.4485053269
 30
0.0
 11
176.8405899052
 21
103.9485053269
 31
0.0
  0
LINE
  5
C4
330
65
100
AcDbEntity
  8
ﾐﾗｰ棚板ブラケット150407
  6
CONTINUOUS
 62
     7
100
AcDbLine
 10
176.6805899052
 20
109.3485053269
 30
0.0
 11
176.6805899052
 21
103.9485053269
 31
0.0
  0
LINE
  5
C5
330
65
100
AcDbEntity
  8
ﾐﾗｰ棚板ブラケット150407
  6
CONTINUOUS
 62
     7
100
AcDbLine
 10
176.6805899052
 20
109.8485053269
 30
0.0
 11
176.6805899052
 21
109.3485053269
 31
0.0
  0
LINE
  5
C6
330
65
100
AcDbEntity
  8
ﾐﾗｰ棚板ブラケット150407
  6
CONTINUOUS
 62
     7
100
AcDbLine
 10
176.6805899052
 20
103.9485053269
 30
0.0
 11
176.6805899052
 21
103.4485053269
 31
0.0
  0
LINE
  5
C7
330
65
100
AcDbEntity
  8
ﾐﾗｰ棚板ブラケット150407
  6
CONTINUOUS
 62
     7
100
AcDbLine
 10
176.8405899052
 20
109.8485053269
 30
0.0
 11
176.6805899052
 21
109.8485053269
 31
0.0
  0
LINE
  5
C9
330
65
100
AcDbEntity
  8
製品デカル150204_座り_ぶ
  6
CONTINUOUS
 62
     7
100
AcDbLine
 10
170.9405899052
 20
112.0485053269
 30
0.0
 11
175.5405899052
 21
112.0485053269
 31
0.0
  0
LINE
  5
CA
330
65
100
AcDbEntity
  8
製品デカル150204_座り_ぶ
  6
CONTINUOUS
 62
     7
100
AcDbLine
 10
170.7405899052
 20
112.0285053269
 30
0.0
 11
170.7405899052
 21
112.0485053269
 31
0.0
  0
LINE
  5
CB
330
65
100
AcDbEntity
  8
製品デカル150204_座り_ぶ
  6
CONTINUOUS
 62
     7
100
AcDbLine
 10
175.5405899052
 20
112.0485053269
 30
0.0
 11
175.7405899052
 21
112.0485053269
 31
0.0
  0
LINE
  5
CC
330
65
100
AcDbEntity
  8
製品デカル150204_座り_ぶ
  6
CONTINUOUS
 62
     7
100
AcDbLine
 10
170.7405899052
 20
112.0485053269
 30
0.0
 11
170.9405899052
 21
112.0485053269
 31
0.0
  0
LINE
  5
CD
330
65
100
AcDbEntity
  8
製品デカル150204_座り_ぶ
  6
CONTINUOUS
 62
     7
100
AcDbLine
 10
175.7405899052
 20
112.0485053269
 30
0.0
 11
175.7405899052
 21
112.0285053269
 31
0.0
  0
LINE
  5
CF
330
65
100
AcDbEntity
  8
棚板ブラケット150407_ﾃﾞ
  6
CONTINUOUS
 62
     7
100
AcDbLine
 10
99.4005899052
 20
110.0285053269
 30
0.0
 11
99.4005899052
 21
109.8485053269
 31
0.0
  0
LINE
  5
D0
330
65
100
AcDbEntity
  8
棚板ブラケット150407_ﾃﾞ
  6
CONTINUOUS
 62
     7
100
AcDbLine
 10
99.5605899052
 20
109.8485053269
 30
0.0
 11
99.5605899052
 21
103.6923762947
 31
0.0
  0
LINE
  5
D1
330
65
100
AcDbEntity
  8
棚板ブラケット150407_ﾃﾞ
  6
CONTINUOUS
 62
     7
100
AcDbLine
 10
99.5605899052
 20
110.0285053269
 30
0.0
 11
99.5605899052
 21
109.8485053269
 31
0.0
  0
LINE
  5
D2
330
65
100
AcDbEntity
  8
棚板ブラケット150407_ﾃﾞ
  6
CONTINUOUS
 62
     7
100
AcDbLine
 10
98.6605899052
 20
109.8485053269
 30
0.0
 11
98.6681409346
 21
109.8485053269
 31
0.0
  0
LINE
  5
D3
330
65
100
AcDbEntity
  8
棚板ブラケット150407_ﾃﾞ
  6
CONTINUOUS
 62
     7
100
AcDbLine
 10
99.5137269902
 20
109.8485053269
 30
0.0
 11
98.6681409346
 21
109.8485053269
 31
0.0
  0
LINE
  5
D4
330
65
100
AcDbEntity
  8
棚板ブラケット150407_ﾃﾞ
  6
CONTINUOUS
 62
     7
100
AcDbLine
 10
98.6681409346
 20
109.8485053269
 30
0.0
 11
98.6681409346
 21
108.9285053269
 31
0.0
  0
LINE
  5
D5
330
65
100
AcDbEntity
  8
棚板ブラケット150407_ﾃﾞ
  6
CONTINUOUS
 62
     7
100
AcDbLine
 10
98.6681409346
 20
105.3785053269
 30
0.0
 11
98.6681409346
 21
103.4632497506
 31
0.0
  0
LINE
  5
D6
330
65
100
AcDbEntity
  8
棚板ブラケット150407_ﾃﾞ
  6
CONTINUOUS
 62
     7
100
AcDbLine
 10
98.6681409346
 20
103.4632497506
 30
0.0
 11
99.5137269902
 21
103.6923762947
 31
0.0
  0
ELLIPSE
  5
D7
330
65
100
AcDbEntity
  8
棚板ブラケット150407_ﾃﾞ
  6
CONTINUOUS
 62
     7
100
AcDbEllipse
 10
98.6605899052
 20
103.4612036652
 30
0.0
 11
-0.01067697089628395
 21
-0.001473101238647079
 31
0.0
210
0.0
220
0.0
230
1.0
 40
0.1329977828
 41
3.908643177436903
 42
4.694041340830177
  0
LINE
  5
D8
330
65
100
AcDbEntity
  8
棚板ブラケット150407_ﾃﾞ
  6
CONTINUOUS
 62
     7
100
AcDbLine
 10
99.5605899052
 20
103.6923762947
 30
0.0
 11
99.5137269902
 21
103.6923762947
 31
0.0
  0
LINE
  5
D9
330
65
100
AcDbEntity
  8
棚板ブラケット150407_ﾃﾞ
  6
CONTINUOUS
 62
     7
100
AcDbLine
 10
99.5137269902
 20
109.8485053269
 30
0.0
 11
99.5605899052
 21
109.8485053269
 31
0.0
  0
LINE
  5
DA
330
65
100
AcDbEntity
  8
棚板ブラケット150407_ﾃﾞ
  6
CONTINUOUS
 62
     7
100
AcDbLine
 10
98.6605899052
 20
103.4485053269
 30
0.0
 11
98.5005899052
 21
103.4485053269
 31
0.0
  0
LINE
  5
DB
330
65
100
AcDbEntity
  8
棚板ブラケット150407_ﾃﾞ
  6
CONTINUOUS
 62
     7
100
AcDbLine
 10
98.5005899052
 20
109.3485053269
 30
0.0
 11
98.5005899052
 21
103.9485053269
 31
0.0
  0
LINE
  5
DC
330
65
100
AcDbEntity
  8
棚板ブラケット150407_ﾃﾞ
  6
CONTINUOUS
 62
     7
100
AcDbLine
 10
98.5005899052
 20
109.3485053269
 30
0.0
 11
98.5005899052
 21
109.8485053269
 31
0.0
  0
LINE
  5
DD
330
65
100
AcDbEntity
  8
棚板ブラケット150407_ﾃﾞ
  6
CONTINUOUS
 62
     7
100
AcDbLine
 10
98.5005899052
 20
103.4485053269
 30
0.0
 11
98.5005899052
 21
103.9485053269
 31
0.0
  0
LINE
  5
DE
330
65
100
AcDbEntity
  8
棚板ブラケット150407_ﾃﾞ
  6
CONTINUOUS
 62
     7
100
AcDbLine
 10
98.6605899052
 20
109.3485053269
 30
0.0
 11
98.6605899052
 21
103.9485053269
 31
0.0
  0
LINE
  5
DF
330
65
100
AcDbEntity
  8
棚板ブラケット150407_ﾃﾞ
  6
CONTINUOUS
 62
     7
100
AcDbLine
 10
98.6605899052
 20
109.8485053269
 30
0.0
 11
98.6605899052
 21
109.3485053269
 31
0.0
  0
LINE
  5
E0
330
65
100
AcDbEntity
  8
棚板ブラケット150407_ﾃﾞ
  6
CONTINUOUS
 62
     7
100
AcDbLine
 10
98.6605899052
 20
103.9485053269
 30
0.0
 11
98.6605899052
 21
103.4485053269
 31
0.0
  0
LINE
  5
E1
330
65
100
AcDbEntity
  8
棚板ブラケット150407_ﾃﾞ
  6
CONTINUOUS
 62
     7
100
AcDbLine
 10
98.5005899052
 20
109.8485053269
 30
0.0
 11
98.6605899052
 21
109.8485053269
 31
0.0
  0
LINE
  5
E3
330
65
100
AcDbEntity
  8
棚板本体160803_ﾃﾞﾌｫﾙ
  6
CONTINUOUS
 62
     7
100
AcDbLine
 10
176.7205899052
 20
110.0285053269
 30
0.0
 11
98.6205899052
 21
110.0285053269
 31
0.0
  0
LINE
  5
E4
330
65
100
AcDbEntity
  8
棚板本体160803_ﾃﾞﾌｫﾙ
  6
CONTINUOUS
 62
     7
100
AcDbLine
 10
98.6005899052
 20
111.4948857273
 30
0.0
 11
98.6005899052
 21
110.4585053269
 31
0.0
  0
LINE
  5
E5
330
65
100
AcDbEntity
  8
棚板本体160803_ﾃﾞﾌｫﾙ
  6
CONTINUOUS
 62
     7
100
AcDbLine
 10
98.6205899052
 20
111.4948857273
 30
0.0
 11
98.6005899052
 21
111.4948857273
 31
0.0
  0
LINE
  5
E6
330
65
100
AcDbEntity
  8
棚板本体160803_ﾃﾞﾌｫﾙ
  6
CONTINUOUS
 62
     7
100
AcDbLine
 10
98.6005899052
 20
110.4585053269
 30
0.0
 11
98.6005899052
 21
110.1585053269
 31
0.0
  0
LINE
  5
E7
330
65
100
AcDbEntity
  8
棚板本体160803_ﾃﾞﾌｫﾙ
  6
CONTINUOUS
 62
     7
100
AcDbLine
 10
98.6205899052
 20
110.1585053269
 30
0.0
 11
98.6005899052
 21
110.1585053269
 31
0.0
  0
LINE
  5
E8
330
65
100
AcDbEntity
  8
棚板本体160803_ﾃﾞﾌｫﾙ
  6
CONTINUOUS
 62
     7
100
AcDbLine
 10
98.6005899052
 20
110.1585053269
 30
0.0
 11
98.6005899052
 21
110.1085053269
 31
0.0
  0
LINE
  5
E9
330
65
100
AcDbEntity
  8
棚板本体160803_ﾃﾞﾌｫﾙ
  6
CONTINUOUS
 62
     7
100
AcDbLine
 10
98.6005899052
 20
111.7085053269
 30
0.0
 11
98.6005899052
 21
111.4948857273
 31
0.0
  0
LINE
  5
EA
330
65
100
AcDbEntity
  8
棚板本体160803_ﾃﾞﾌｫﾙ
  6
CONTINUOUS
 62
     7
100
AcDbLine
 10
98.6205899052
 20
111.7085053269
 30
0.0
 11
98.6005899052
 21
111.7085053269
 31
0.0
  0
LINE
  5
EB
330
65
100
AcDbEntity
  8
棚板本体160803_ﾃﾞﾌｫﾙ
  6
CONTINUOUS
 62
     7
100
AcDbLine
 10
98.6005899052
 20
111.9485053269
 30
0.0
 11
98.6005899052
 21
111.7085053269
 31
0.0
  0
LINE
  5
EC
330
65
100
AcDbEntity
  8
棚板本体160803_ﾃﾞﾌｫﾙ
  6
CONTINUOUS
 62
     7
100
AcDbLine
 10
98.6205899052
 20
112.0285053269
 30
0.0
 11
176.7205899052
 21
112.0285053269
 31
0.0
  0
ARC
  5
ED
330
65
100
AcDbEntity
  8
棚板本体160803_ﾃﾞﾌｫﾙ
  6
CONTINUOUS
 62
     7
100
AcDbCircle
 10
98.6805899052
 20
111.9485053269
 30
0.0
 40
0.0799999999999967
100
AcDbArc
 50
138.5903778907
 51
180.0
  0
ARC
  5
EE
330
65
100
AcDbEntity
  8
棚板本体160803_ﾃﾞﾌｫﾙ
  6
CONTINUOUS
 62
     7
100
AcDbCircle
 10
98.6805899052
 20
110.1085053269
 30
0.0
 40
0.0799999999999967
100
AcDbArc
 50
180.0
 51
221.4096221093
  0
LINE
  5
EF
330
65
100
AcDbEntity
  8
棚板本体160803_ﾃﾞﾌｫﾙ
  6
CONTINUOUS
 62
     7
100
AcDbLine
 10
98.6205899052
 20
111.6085053269
 30
0.0
 11
98.6205899052
 21
112.0285053269
 31
0.0
  0
LINE
  5
F0
330
65
100
AcDbEntity
  8
棚板本体160803_ﾃﾞﾌｫﾙ
  6
CONTINUOUS
 62
     7
100
AcDbLine
 10
98.6205899052
 20
110.0285053269
 30
0.0
 11
98.6205899052
 21
110.4485053269
 31
0.0
  0
LINE
  5
F1
330
65
100
AcDbEntity
  8
棚板本体160803_ﾃﾞﾌｫﾙ
  6
CONTINUOUS
 62
     7
100
AcDbLine
 10
98.6205899052
 20
110.4485053269
 30
0.0
 11
98.6205899052
 21
111.6085053269
 31
0.0
  0
LINE
  5
F2
330
65
100
AcDbEntity
  8
棚板本体160803_ﾃﾞﾌｫﾙ
  6
CONTINUOUS
 62
     7
100
AcDbLine
 10
176.7405899052
 20
111.9485053269
 30
0.0
 11
176.7405899052
 21
111.7085053269
 31
0.0
  0
LINE
  5
F3
330
65
100
AcDbEntity
  8
棚板本体160803_ﾃﾞﾌｫﾙ
  6
CONTINUOUS
 62
     7
100
AcDbLine
 10
176.7405899052
 20
111.7085053269
 30
0.0
 11
176.7405899052
 21
111.4948857273
 31
0.0
  0
LINE
  5
F4
330
65
100
AcDbEntity
  8
棚板本体160803_ﾃﾞﾌｫﾙ
  6
CONTINUOUS
 62
     7
100
AcDbLine
 10
176.7405899052
 20
111.4948857273
 30
0.0
 11
176.7405899052
 21
110.4585053269
 31
0.0
  0
LINE
  5
F5
330
65
100
AcDbEntity
  8
棚板本体160803_ﾃﾞﾌｫﾙ
  6
CONTINUOUS
 62
     7
100
AcDbLine
 10
176.7405899052
 20
110.4585053269
 30
0.0
 11
176.7405899052
 21
110.1585053269
 31
0.0
  0
LINE
  5
F6
330
65
100
AcDbEntity
  8
棚板本体160803_ﾃﾞﾌｫﾙ
  6
CONTINUOUS
 62
     7
100
AcDbLine
 10
176.7405899052
 20
110.1585053269
 30
0.0
 11
176.7405899052
 21
110.1085053269
 31
0.0
  0
LINE
  5
F7
330
65
100
AcDbEntity
  8
棚板本体160803_ﾃﾞﾌｫﾙ
  6
CONTINUOUS
 62
     7
100
AcDbLine
 10
176.7205899052
 20
110.4485053269
 30
0.0
 11
176.7205899052
 21
111.6085053269
 31
0.0
  0
LINE
  5
F8
330
65
100
AcDbEntity
  8
棚板本体160803_ﾃﾞﾌｫﾙ
  6
CONTINUOUS
 62
     7
100
AcDbLine
 10
176.7205899052
 20
110.1585053269
 30
0.0
 11
176.7405899052
 21
110.1585053269
 31
0.0
  0
LINE
  5
F9
330
65
100
AcDbEntity
  8
棚板本体160803_ﾃﾞﾌｫﾙ
  6
CONTINUOUS
 62
     7
100
AcDbLine
 10
176.7205899052
 20
111.4948857273
 30
0.0
 11
176.7405899052
 21
111.4948857273
 31
0.0
  0
LINE
  5
FA
330
65
100
AcDbEntity
  8
棚板本体160803_ﾃﾞﾌｫﾙ
  6
CONTINUOUS
 62
     7
100
AcDbLine
 10
176.7205899052
 20
111.7085053269
 30
0.0
 11
176.7405899052
 21
111.7085053269
 31
0.0
  0
ARC
  5
FB
330
65
100
AcDbEntity
  8
棚板本体160803_ﾃﾞﾌｫﾙ
  6
CONTINUOUS
 62
     7
100
AcDbCircle
 10
176.6605899052
 20
111.9485053269
 30
0.0
 40
0.0799999999999967
100
AcDbArc
 50
0.0
 51
41.4096221093
  0
LINE
  5
FC
330
65
100
AcDbEntity
  8
棚板本体160803_ﾃﾞﾌｫﾙ
  6
CONTINUOUS
 62
     7
100
AcDbLine
 10
176.7205899052
 20
111.6085053269
 30
0.0
 11
176.7205899052
 21
112.0285053269
 31
0.0
  0
LINE
  5
FD
330
65
100
AcDbEntity
  8
棚板本体160803_ﾃﾞﾌｫﾙ
  6
CONTINUOUS
 62
     7
100
AcDbLine
 10
176.7205899052
 20
110.0285053269
 30
0.0
 11
176.7205899052
 21
110.4485053269
 31
0.0
  0
ARC
  5
FE
330
65
100
AcDbEntity
  8
棚板本体160803_ﾃﾞﾌｫﾙ
  6
CONTINUOUS
 62
     7
100
AcDbCircle
 10
176.6605899052
 20
110.1085053269
 30
0.0
 40
0.0799999999999967
100
AcDbArc
 50
318.5903778907
 51
0.0
  0
LINE
  5
100
330
65
100
AcDbEntity
  8
支柱外160803_ﾃﾞﾌｫﾙﾄ
  6
CONTINUOUS
 62
     7
100
AcDbLine
 10
98.4005899052
 20
139.7462942823
 30
0.0
 11
98.4005899052
 21
75.880856639
 31
0.0
  0
LINE
  5
101
330
65
100
AcDbEntity
  8
支柱外160803_ﾃﾞﾌｫﾙﾄ
  6
CONTINUOUS
 62
     7
100
AcDbLine
 10
98.4005899052
 20
74.6127872402
 30
0.0
 11
98.4005899052
 21
68.7823848594
 31
0.0
  0
LINE
  5
102
330
65
100
AcDbEntity
  8
支柱外160803_ﾃﾞﾌｫﾙﾄ
  6
CONTINUOUS
 62
     7
100
AcDbLine
 10
98.4005899052
 20
68.7823848594
 30
0.0
 11
98.4005899052
 21
68.0868667294
 31
0.0
  0
ELLIPSE
  5
103
330
65
100
AcDbEntity
  8
支柱外160803_ﾃﾞﾌｫﾙﾄ
  6
CONTINUOUS
 62
     7
100
AcDbEllipse
 10
98.2405899052
 20
68.7823848594
 30
0.0
 11
0.159999999999999
 21
2.081668171172169E-14
 31
0.0
210
0.0
220
0.0
230
1.0
 40
0.3826834324
 41
0.0
 42
1.186399552299286
  0
LINE
  5
104
330
65
100
AcDbEntity
  8
支柱外160803_ﾃﾞﾌｫﾙﾄ
  6
CONTINUOUS
 62
     7
100
AcDbLine
 10
98.4005899052
 20
68.0868667294
 30
0.0
 11
98.4005899052
 21
67.8585053269
 31
0.0
  0
LINE
  5
105
330
65
100
AcDbEntity
  8
支柱外160803_ﾃﾞﾌｫﾙﾄ
  6
CONTINUOUS
 62
     7
100
AcDbLine
 10
98.4005899052
 20
67.8585053269
 30
0.0
 11
98.3005899052
 21
67.8585053269
 31
0.0
  0
LINE
  5
107
330
65
100
AcDbEntity
  8
ﾐﾗｰ支柱外160803_ﾃﾞﾌ
  6
CONTINUOUS
 62
     7
100
AcDbLine
 10
176.9405899052
 20
68.7823848594
 30
0.0
 11
176.9405899052
 21
68.0868667294
 31
0.0
  0
ELLIPSE
  5
108
330
65
100
AcDbEntity
  8
ﾐﾗｰ支柱外160803_ﾃﾞﾌ
  6
CONTINUOUS
 62
     7
100
AcDbEllipse
 10
177.1005899052
 20
68.7823848594
 30
0.0
 11
-0.159999999999999
 21
2.081668171172169E-14
 31
0.0
210
0.0
220
0.0
230
1.0
 40
0.3826834324
 41
5.096785754880396
 42
6.283185307179586
  0
LINE
  5
109
330
65
100
AcDbEntity
  8
ﾐﾗｰ支柱外160803_ﾃﾞﾌ
  6
CONTINUOUS
 62
     7
100
AcDbLine
 10
176.9405899052
 20
68.0868667294
 30
0.0
 11
176.9405899052
 21
67.8585053269
 31
0.0
  0
LINE
  5
10A
330
65
100
AcDbEntity
  8
ﾐﾗｰ支柱外160803_ﾃﾞﾌ
  6
CONTINUOUS
 62
     7
100
AcDbLine
 10
176.9405899052
 20
67.8585053269
 30
0.0
 11
177.0405899052
 21
67.8585053269
 31
0.0
  0
LINE
  5
10C
330
65
100
AcDbEntity
  8
支柱カバー160803_ﾃﾞﾌｫ
  6
CONTINUOUS
 62
     7
100
AcDbLine
 10
98.2205899052
 20
67.8585053269
 30
0.0
 11
98.2205899052
 21
67.8597234461
 31
0.0
  0
LINE
  5
10D
330
65
100
AcDbEntity
  8
支柱カバー160803_ﾃﾞﾌｫ
  6
CONTINUOUS
 62
     7
100
AcDbLine
 10
98.2205899052
 20
67.8585053269
 30
0.0
 11
98.223773004
 21
67.8585053269
 31
0.0
  0
ELLIPSE
  5
10E
330
65
100
AcDbEntity
  8
支柱カバー160803_ﾃﾞﾌｫ
  6
CONTINUOUS
 62
     7
100
AcDbEllipse
 10
98.2205899052
 20
67.8585053269
 30
0.0
 11
-0.003183098861797573
 21
0.0
 31
0.0
210
0.0
220
0.0
230
1.0
 40
0.3826834323
 41
3.141592653589793
 42
4.71238898038469
  0
LINE
  5
10F
330
65
100
AcDbEntity
  8
支柱カバー160803_ﾃﾞﾌｫ
  6
CONTINUOUS
 62
     7
100
AcDbLine
 10
98.223773004
 20
67.8585053269
 30
0.0
 11
98.3005899052
 21
67.8585053269
 31
0.0
  0
ELLIPSE
  5
110
330
65
100
AcDbEntity
  8
支柱カバー160803_ﾃﾞﾌｫ
  6
CONTINUOUS
 62
     7
100
AcDbEllipse
 10
98.2205899052
 20
67.8585053269
 30
0.0
 11
-0.07999999999994678
 21
0.0
 31
0.0
210
0.0
220
0.0
230
1.0
 40
0.3826834324
 41
3.141592653589793
 42
4.71238898038469
  0
LINE
  5
111
330
65
100
AcDbEntity
  8
支柱カバー160803_ﾃﾞﾌｫ
  6
CONTINUOUS
 62
     7
100
AcDbLine
 10
98.3005899052
 20
67.8585053269
 30
0.0
 11
98.3005899052
 21
141.0803289816
 31
0.0
  0
ELLIPSE
  5
112
330
65
100
AcDbEntity
  8
支柱カバー160803_ﾃﾞﾌｫ
  6
CONTINUOUS
 62
     7
100
AcDbEllipse
 10
98.2205899052
 20
67.8585053269
 30
0.0
 11
-0.003183098861947454
 21
8.326672684688676E-15
 31
0.0
210
0.0
220
0.0
230
1.0
 40
0.3826834324
 41
4.712388980385691
 42
6.283183004624694
  0
LINE
  5
113
330
65
100
AcDbEntity
  8
支柱カバー160803_ﾃﾞﾌｫ
  6
CONTINUOUS
 62
     7
100
AcDbLine
 10
98.2205899052
 20
67.8891200015
 30
0.0
 11
94.9679168932
 21
67.8891200015
 31
0.0
  0
LINE
  5
114
330
65
100
AcDbEntity
  8
支柱カバー160803_ﾃﾞﾌｫ
  6
CONTINUOUS
 62
     7
100
AcDbLine
 10
98.2174068063
 20
67.8585053269
 30
0.0
 11
94.9679168932
 21
67.8585053269
 31
0.0
  0
ELLIPSE
  5
115
330
65
100
AcDbEntity
  8
支柱カバー160803_ﾃﾞﾌｫ
  6
CONTINUOUS
 62
     7
100
AcDbEllipse
 10
93.1805899052
 20
67.8585053269
 30
0.0
 11
-0.0201149604526274
 21
0.00192566949496209
 31
0.0
210
0.0
220
0.0
230
0.9999999999999999
 40
0.0254022729
 41
4.453021428613416
 42
6.023817755391933
  0
LINE
  5
116
330
65
100
AcDbEntity
  8
支柱カバー160803_ﾃﾞﾌｫ
  6
CONTINUOUS
 62
     7
100
AcDbLine
 10
94.0019910669
 20
67.8664289878
 30
0.0
 11
93.1033158391
 21
67.8664289878
 31
0.0
  0
LINE
  5
117
330
65
100
AcDbEntity
  8
支柱カバー160803_ﾃﾞﾌｫ
  6
CONTINUOUS
 62
     7
100
AcDbLine
 10
94.079265133
 20
67.8585053269
 30
0.0
 11
93.1857960554
 21
67.8585053269
 31
0.0
  0
LINE
  5
118
330
65
100
AcDbEntity
  8
支柱カバー160803_ﾃﾞﾌｫ
  6
CONTINUOUS
 62
     7
100
AcDbLine
 10
93.1805899052
 20
67.8585053269
 30
0.0
 11
93.1604748852
 21
67.8585053269
 31
0.0
  0
LINE
  5
119
330
65
100
AcDbEntity
  8
支柱カバー160803_ﾃﾞﾌｫ
  6
CONTINUOUS
 62
     7
100
AcDbLine
 10
93.1604748852
 20
67.8585053269
 30
0.0
 11
93.1005899052
 21
67.8585053269
 31
0.0
  0
LINE
  5
11A
330
65
100
AcDbEntity
  8
支柱カバー160803_ﾃﾞﾌｫ
  6
CONTINUOUS
 62
     7
100
AcDbLine
 10
93.1005899052
 20
67.8585053269
 30
0.0
 11
93.1005899052
 21
140.4707815966
 31
0.0
  0
LINE
  5
11B
330
65
100
AcDbEntity
  8
支柱カバー160803_ﾃﾞﾌｫ
  6
CONTINUOUS
 62
     7
100
AcDbLine
 10
93.1805899052
 20
67.8585053269
 30
0.0
 11
93.1805899052
 21
67.859020974
 31
0.0
  0
ELLIPSE
  5
11C
330
65
100
AcDbEntity
  8
支柱カバー160803_ﾃﾞﾌｫ
  6
CONTINUOUS
 62
     7
100
AcDbEllipse
 10
93.1805899052
 20
67.8585053269
 30
0.0
 11
-0.02011501993093856
 21
2.636779683484747E-14
 31
0.0
210
0.0
220
0.0
230
1.0
 40
0.3826834324
 41
6.02138591938039
 42
6.283185307179586
  0
LINE
  5
11D
330
65
100
AcDbEntity
  8
支柱カバー160803_ﾃﾞﾌｫ
  6
CONTINUOUS
 62
     7
100
AcDbLine
 10
93.1611602879
 20
67.8604976344
 30
0.0
 11
93.1033158391
 21
67.8664289878
 31
0.0
  0
ELLIPSE
  5
11E
330
65
100
AcDbEntity
  8
支柱カバー160803_ﾃﾞﾌｫ
  6
CONTINUOUS
 62
     7
100
AcDbEllipse
 10
93.1805899052
 20
67.8585053269
 30
0.0
 11
-0.07999999999975806
 21
-4.857225732735060E-14
 31
0.0
210
0.0
220
0.0
230
1.0
 40
0.3826834324
 41
6.021385919380007
 42
6.283185307179586
  0
ARC
  5
11F
330
65
100
AcDbEntity
  8
支柱カバー160803_ﾃﾞﾌｫ
  6
CONTINUOUS
 62
     7
100
AcDbCircle
 10
95.0282635356
 20
44.7498200866
 30
0.0
 40
23.13937860597742
100
AcDbArc
 50
90.1494254404
 51
92.5420032625
  0
ARC
  5
120
330
65
100
AcDbEntity
  8
支柱カバー160803_ﾃﾞﾌｫ
  6
CONTINUOUS
 62
     7
100
AcDbCircle
 10
94.5235910131
 20
83.2633723594
 30
0.0
 40
15.41127359356652
100
AcDbArc
 50
268.6022721983
 51
271.6521363904
  0
LINE
  5
121
330
65
100
AcDbEntity
  8
支柱カバー160803_ﾃﾞﾌｫ
  6
CONTINUOUS
 62
     7
100
AcDbLine
 10
93.1857960554
 20
67.8585053269
 30
0.0
 11
93.1805899052
 21
67.8585053269
 31
0.0
  0
ARC
  5
122
330
65
100
AcDbEntity
  8
支柱カバー160803_ﾃﾞﾌｫ
  6
CONTINUOUS
 62
     7
100
AcDbCircle
 10
93.481402114
 20
63.974700491
 30
0.0
 40
3.937784056867077
100
AcDbArc
 50
80.238459649
 51
81.4695509275
  0
LINE
  5
124
330
65
100
AcDbEntity
  8
支柱連結パイプ160803_0
  6
CONTINUOUS
 62
     7
100
AcDbLine
 10
98.4005899052
 20
94.6945489846
 30
0.0
 11
176.9405899052
 21
94.6945489846
 31
0.0
  0
LINE
  5
125
330
65
100
AcDbEntity
  8
支柱連結パイプ160803_0
  6
CONTINUOUS
 62
     7
100
AcDbLine
 10
176.9405899052
 20
100.2600386705
 30
0.0
 11
98.4005899052
 21
100.2600386705
 31
0.0
  0
LINE
  5
127
330
65
100
AcDbEntity
  8
アジャスター_大昌H150_12
  6
CONTINUOUS
 62
     7
100
AcDbLine
 10
97.9455899052
 20
58.0273021508
 30
0.0
 11
94.0955899052
 21
58.0273021508
 31
0.0
  0
LINE
  5
128
330
65
100
AcDbEntity
  8
アジャスター_大昌H150_12
  6
CONTINUOUS
 62
     7
100
AcDbLine
 10
94.1955899052
 20
57.0273021508
 30
0.0
 11
97.8455899052
 21
57.0273021508
 31
0.0
  0
LINE
  5
129
330
65
100
AcDbEntity
  8
アジャスター_大昌H150_12
  6
CONTINUOUS
 62
     7
100
AcDbLine
 10
97.9397368511
 20
57.1273021508
 30
0.0
 11
97.9455899052
 21
57.1273021508
 31
0.0
  0
LINE
  5
12A
330
65
100
AcDbEntity
  8
アジャスター_大昌H150_12
  6
CONTINUOUS
 62
     7
100
AcDbLine
 10
97.9397368511
 20
57.9273021508
 30
0.0
 11
97.9397368511
 21
57.1273021508
 31
0.0
  0
LINE
  5
12B
330
65
100
AcDbEntity
  8
アジャスター_大昌H150_12
  6
CONTINUOUS
 62
     7
100
AcDbLine
 10
97.9397368511
 20
57.9273021508
 30
0.0
 11
97.9455899052
 21
57.9273021508
 31
0.0
  0
LINE
  5
12C
330
65
100
AcDbEntity
  8
アジャスター_大昌H150_12
  6
CONTINUOUS
 62
     7
100
AcDbLine
 10
97.8038208732
 20
57.9273021508
 30
0.0
 11
97.8038208732
 21
57.1273021508
 31
0.0
  0
LINE
  5
12D
330
65
100
AcDbEntity
  8
アジャスター_大昌H150_12
  6
CONTINUOUS
 62
     7
100
AcDbLine
 10
97.7994545647
 20
57.1273021508
 30
0.0
 11
97.892159663
 21
57.1273021508
 31
0.0
  0
LINE
  5
12E
330
65
100
AcDbEntity
  8
アジャスター_大昌H150_12
  6
CONTINUOUS
 62
     7
100
AcDbLine
 10
97.7994545647
 20
57.9273021508
 30
0.0
 11
97.7994545647
 21
57.1273021508
 31
0.0
  0
LINE
  5
12F
330
65
100
AcDbEntity
  8
アジャスター_大昌H150_12
  6
CONTINUOUS
 62
     7
100
AcDbLine
 10
97.892159663
 20
57.9273021508
 30
0.0
 11
97.892159663
 21
57.1273021508
 31
0.0
  0
LINE
  5
130
330
65
100
AcDbEntity
  8
アジャスター_大昌H150_12
  6
CONTINUOUS
 62
     7
100
AcDbLine
 10
97.7994545647
 20
57.9273021508
 30
0.0
 11
97.892159663
 21
57.9273021508
 31
0.0
  0
LINE
  5
131
330
65
100
AcDbEntity
  8
アジャスター_大昌H150_12
  6
CONTINUOUS
 62
     7
100
AcDbLine
 10
97.5374967696
 20
57.9273021508
 30
0.0
 11
97.5374967696
 21
57.1273021508
 31
0.0
  0
LINE
  5
132
330
65
100
AcDbEntity
  8
アジャスター_大昌H150_12
  6
CONTINUOUS
 62
     7
100
AcDbLine
 10
97.4850446113
 20
57.1273021508
 30
0.0
 11
97.661380187
 21
57.1273021508
 31
0.0
  0
LINE
  5
133
330
65
100
AcDbEntity
  8
アジャスター_大昌H150_12
  6
CONTINUOUS
 62
     7
100
AcDbLine
 10
97.4850446113
 20
57.9273021508
 30
0.0
 11
97.4850446113
 21
57.1273021508
 31
0.0
  0
LINE
  5
134
330
65
100
AcDbEntity
  8
アジャスター_大昌H150_12
  6
CONTINUOUS
 62
     7
100
AcDbLine
 10
97.661380187
 20
57.9273021508
 30
0.0
 11
97.661380187
 21
57.1273021508
 31
0.0
  0
LINE
  5
135
330
65
100
AcDbEntity
  8
アジャスター_大昌H150_12
  6
CONTINUOUS
 62
     7
100
AcDbLine
 10
97.4850446113
 20
57.9273021508
 30
0.0
 11
97.661380187
 21
57.9273021508
 31
0.0
  0
LINE
  5
136
330
65
100
AcDbEntity
  8
アジャスター_大昌H150_12
  6
CONTINUOUS
 62
     7
100
AcDbLine
 10
97.1226872532
 20
57.9273021508
 30
0.0
 11
97.1226872532
 21
57.1273021508
 31
0.0
  0
LINE
  5
137
330
65
100
AcDbEntity
  8
アジャスター_大昌H150_12
  6
CONTINUOUS
 62
     7
100
AcDbLine
 10
97.0272836278
 20
57.1273021508
 30
0.0
 11
97.2699887261
 21
57.1273021508
 31
0.0
  0
LINE
  5
138
330
65
100
AcDbEntity
  8
アジャスター_大昌H150_12
  6
CONTINUOUS
 62
     7
100
AcDbLine
 10
97.0272836278
 20
57.9273021508
 30
0.0
 11
97.0272836278
 21
57.1273021508
 31
0.0
  0
LINE
  5
139
330
65
100
AcDbEntity
  8
アジャスター_大昌H150_12
  6
CONTINUOUS
 62
     7
100
AcDbLine
 10
97.2699887261
 20
57.9273021508
 30
0.0
 11
97.2699887261
 21
57.1273021508
 31
0.0
  0
LINE
  5
13A
330
65
100
AcDbEntity
  8
アジャスター_大昌H150_12
  6
CONTINUOUS
 62
     7
100
AcDbLine
 10
97.0272836278
 20
57.9273021508
 30
0.0
 11
97.2699887261
 21
57.9273021508
 31
0.0
  0
LINE
  5
13B
330
65
100
AcDbEntity
  8
アジャスター_大昌H150_12
  6
CONTINUOUS
 62
     7
100
AcDbLine
 10
96.5999967696
 20
57.9273021508
 30
0.0
 11
96.5999967696
 21
57.1273021508
 31
0.0
  0
LINE
  5
13C
330
65
100
AcDbEntity
  8
アジャスター_大昌H150_12
  6
CONTINUOUS
 62
     7
100
AcDbLine
 10
96.4709804487
 20
57.1273021508
 30
0.0
 11
96.7562974036
 21
57.1273021508
 31
0.0
  0
LINE
  5
13D
330
65
100
AcDbEntity
  8
アジャスター_大昌H150_12
  6
CONTINUOUS
 62
     7
100
AcDbLine
 10
96.4709804487
 20
57.9273021508
 30
0.0
 11
96.4709804487
 21
57.1273021508
 31
0.0
  0
LINE
  5
13E
330
65
100
AcDbEntity
  8
アジャスター_大昌H150_12
  6
CONTINUOUS
 62
     7
100
AcDbLine
 10
96.7562974036
 20
57.9273021508
 30
0.0
 11
96.7562974036
 21
57.1273021508
 31
0.0
  0
LINE
  5
13F
330
65
100
AcDbEntity
  8
アジャスター_大昌H150_12
  6
CONTINUOUS
 62
     7
100
AcDbLine
 10
96.4709804487
 20
57.9273021508
 30
0.0
 11
96.7562974036
 21
57.9273021508
 31
0.0
  0
LINE
  5
140
330
65
100
AcDbEntity
  8
アジャスター_大昌H150_12
  6
CONTINUOUS
 62
     7
100
AcDbLine
 10
96.0205899052
 20
57.9273021508
 30
0.0
 11
96.0205899052
 21
57.1273021508
 31
0.0
  0
LINE
  5
141
330
65
100
AcDbEntity
  8
アジャスター_大昌H150_12
  6
CONTINUOUS
 62
     7
100
AcDbLine
 10
95.8705899052
 20
57.1273021508
 30
0.0
 11
96.1705899052
 21
57.1273021508
 31
0.0
  0
LINE
  5
142
330
65
100
AcDbEntity
  8
アジャスター_大昌H150_12
  6
CONTINUOUS
 62
     7
100
AcDbLine
 10
95.8705899052
 20
57.9273021508
 30
0.0
 11
95.8705899052
 21
57.1273021508
 31
0.0
  0
LINE
  5
143
330
65
100
AcDbEntity
  8
アジャスター_大昌H150_12
  6
CONTINUOUS
 62
     7
100
AcDbLine
 10
96.1705899052
 20
57.9273021508
 30
0.0
 11
96.1705899052
 21
57.1273021508
 31
0.0
  0
LINE
  5
144
330
65
100
AcDbEntity
  8
アジャスター_大昌H150_12
  6
CONTINUOUS
 62
     7
100
AcDbLine
 10
95.8705899052
 20
57.9273021508
 30
0.0
 11
96.1705899052
 21
57.9273021508
 31
0.0
  0
LINE
  5
145
330
65
100
AcDbEntity
  8
アジャスター_大昌H150_12
  6
CONTINUOUS
 62
     7
100
AcDbLine
 10
95.4411830407
 20
57.9273021508
 30
0.0
 11
95.4411830407
 21
57.1273021508
 31
0.0
  0
LINE
  5
146
330
65
100
AcDbEntity
  8
アジャスター_大昌H150_12
  6
CONTINUOUS
 62
     7
100
AcDbLine
 10
95.2848824067
 20
57.1273021508
 30
0.0
 11
95.5701993616
 21
57.1273021508
 31
0.0
  0
LINE
  5
147
330
65
100
AcDbEntity
  8
アジャスター_大昌H150_12
  6
CONTINUOUS
 62
     7
100
AcDbLine
 10
95.2848824067
 20
57.9273021508
 30
0.0
 11
95.2848824067
 21
57.1273021508
 31
0.0
  0
LINE
  5
148
330
65
100
AcDbEntity
  8
アジャスター_大昌H150_12
  6
CONTINUOUS
 62
     7
100
AcDbLine
 10
95.5701993616
 20
57.9273021508
 30
0.0
 11
95.5701993616
 21
57.1273021508
 31
0.0
  0
LINE
  5
149
330
65
100
AcDbEntity
  8
アジャスター_大昌H150_12
  6
CONTINUOUS
 62
     7
100
AcDbLine
 10
95.2848824067
 20
57.9273021508
 30
0.0
 11
95.5701993616
 21
57.9273021508
 31
0.0
  0
LINE
  5
14A
330
65
100
AcDbEntity
  8
アジャスター_大昌H150_12
  6
CONTINUOUS
 62
     7
100
AcDbLine
 10
94.9184925571
 20
57.9273021508
 30
0.0
 11
94.9184925571
 21
57.1273021508
 31
0.0
  0
LINE
  5
14B
330
65
100
AcDbEntity
  8
アジャスター_大昌H150_12
  6
CONTINUOUS
 62
     7
100
AcDbLine
 10
94.7711910842
 20
57.1273021508
 30
0.0
 11
95.0138961825
 21
57.1273021508
 31
0.0
  0
LINE
  5
14C
330
65
100
AcDbEntity
  8
アジャスター_大昌H150_12
  6
CONTINUOUS
 62
     7
100
AcDbLine
 10
94.7711910842
 20
57.9273021508
 30
0.0
 11
94.7711910842
 21
57.1273021508
 31
0.0
  0
LINE
  5
14D
330
65
100
AcDbEntity
  8
アジャスター_大昌H150_12
  6
CONTINUOUS
 62
     7
100
AcDbLine
 10
95.0138961825
 20
57.9273021508
 30
0.0
 11
95.0138961825
 21
57.1273021508
 31
0.0
  0
LINE
  5
14E
330
65
100
AcDbEntity
  8
アジャスター_大昌H150_12
  6
CONTINUOUS
 62
     7
100
AcDbLine
 10
94.7711910842
 20
57.9273021508
 30
0.0
 11
95.0138961825
 21
57.9273021508
 31
0.0
  0
LINE
  5
14F
330
65
100
AcDbEntity
  8
アジャスター_大昌H150_12
  6
CONTINUOUS
 62
     7
100
AcDbLine
 10
94.5036830407
 20
57.9273021508
 30
0.0
 11
94.5036830407
 21
57.1273021508
 31
0.0
  0
LINE
  5
150
330
65
100
AcDbEntity
  8
アジャスター_大昌H150_12
  6
CONTINUOUS
 62
     7
100
AcDbLine
 10
94.3797996234
 20
57.1273021508
 30
0.0
 11
94.5561351991
 21
57.1273021508
 31
0.0
  0
LINE
  5
151
330
65
100
AcDbEntity
  8
アジャスター_大昌H150_12
  6
CONTINUOUS
 62
     7
100
AcDbLine
 10
94.3797996234
 20
57.9273021508
 30
0.0
 11
94.3797996234
 21
57.1273021508
 31
0.0
  0
LINE
  5
152
330
65
100
AcDbEntity
  8
アジャスター_大昌H150_12
  6
CONTINUOUS
 62
     7
100
AcDbLine
 10
94.5561351991
 20
57.9273021508
 30
0.0
 11
94.5561351991
 21
57.1273021508
 31
0.0
  0
LINE
  5
153
330
65
100
AcDbEntity
  8
アジャスター_大昌H150_12
  6
CONTINUOUS
 62
     7
100
AcDbLine
 10
94.3797996234
 20
57.9273021508
 30
0.0
 11
94.5561351991
 21
57.9273021508
 31
0.0
  0
LINE
  5
154
330
65
100
AcDbEntity
  8
アジャスター_大昌H150_12
  6
CONTINUOUS
 62
     7
100
AcDbLine
 10
94.2373589371
 20
57.9273021508
 30
0.0
 11
94.2373589371
 21
57.1273021508
 31
0.0
  0
LINE
  5
155
330
65
100
AcDbEntity
  8
アジャスター_大昌H150_12
  6
CONTINUOUS
 62
     7
100
AcDbLine
 10
94.1490201474
 20
57.1273021508
 30
0.0
 11
94.2417252457
 21
57.1273021508
 31
0.0
  0
LINE
  5
156
330
65
100
AcDbEntity
  8
アジャスター_大昌H150_12
  6
CONTINUOUS
 62
     7
100
AcDbLine
 10
94.1490201474
 20
57.9273021508
 30
0.0
 11
94.1490201474
 21
57.1273021508
 31
0.0
  0
LINE
  5
157
330
65
100
AcDbEntity
  8
アジャスター_大昌H150_12
  6
CONTINUOUS
 62
     7
100
AcDbLine
 10
94.2417252457
 20
57.9273021508
 30
0.0
 11
94.2417252457
 21
57.1273021508
 31
0.0
  0
LINE
  5
158
330
65
100
AcDbEntity
  8
アジャスター_大昌H150_12
  6
CONTINUOUS
 62
     7
100
AcDbLine
 10
94.1490201474
 20
57.9273021508
 30
0.0
 11
94.2417252457
 21
57.9273021508
 31
0.0
  0
LINE
  5
159
330
65
100
AcDbEntity
  8
アジャスター_大昌H150_12
  6
CONTINUOUS
 62
     7
100
AcDbLine
 10
94.1014429593
 20
57.1273021508
 30
0.0
 11
94.0955899052
 21
57.1273021508
 31
0.0
  0
LINE
  5
15A
330
65
100
AcDbEntity
  8
アジャスター_大昌H150_12
  6
CONTINUOUS
 62
     7
100
AcDbLine
 10
94.1014429593
 20
57.9273021508
 30
0.0
 11
94.1014429593
 21
57.1273021508
 31
0.0
  0
LINE
  5
15B
330
65
100
AcDbEntity
  8
アジャスター_大昌H150_12
  6
CONTINUOUS
 62
     7
100
AcDbLine
 10
94.1014429593
 20
57.9273021508
 30
0.0
 11
94.0955899052
 21
57.9273021508
 31
0.0
  0
LINE
  5
15C
330
65
100
AcDbEntity
  8
アジャスター_大昌H150_12
  6
CONTINUOUS
 62
     7
100
AcDbLine
 10
96.5205899052
 20
58.0273021508
 30
0.0
 11
96.5205899052
 21
59.0773021508
 31
0.0
  0
LINE
  5
15D
330
65
100
AcDbEntity
  8
アジャスター_大昌H150_12
  6
CONTINUOUS
 62
     7
100
AcDbLine
 10
95.5205899052
 20
59.0773021508
 30
0.0
 11
95.5205899052
 21
58.0273021508
 31
0.0
  0
ARC
  5
15E
330
65
100
AcDbEntity
  8
アジャスター_大昌H150_12
  6
CONTINUOUS
 62
     7
100
AcDbCircle
 10
94.1955899052
 20
57.1273021508
 30
0.0
 40
0.1000000000000001
100
AcDbArc
 50
180.0
 51
270.0
  0
ARC
  5
15F
330
65
100
AcDbEntity
  8
アジャスター_大昌H150_12
  6
CONTINUOUS
 62
     7
100
AcDbCircle
 10
97.8455899052
 20
57.1273021508
 30
0.0
 40
0.1
100
AcDbArc
 50
270.0
 51
0.0
  0
LINE
  5
160
330
65
100
AcDbEntity
  8
アジャスター_大昌H150_12
  6
CONTINUOUS
 62
     7
100
AcDbLine
 10
97.9455899052
 20
57.9273021508
 30
0.0
 11
97.9455899052
 21
58.0273021508
 31
0.0
  0
LINE
  5
161
330
65
100
AcDbEntity
  8
アジャスター_大昌H150_12
  6
CONTINUOUS
 62
     7
100
AcDbLine
 10
94.0955899052
 20
58.0273021508
 30
0.0
 11
94.0955899052
 21
57.9273021508
 31
0.0
  0
LINE
  5
162
330
65
100
AcDbEntity
  8
アジャスター_大昌H150_12
  6
CONTINUOUS
 62
     7
100
AcDbLine
 10
181.2455899052
 20
58.0273021508
 30
0.0
 11
177.3955899052
 21
58.0273021508
 31
0.0
  0
LINE
  5
163
330
65
100
AcDbEntity
  8
アジャスター_大昌H150_12
  6
CONTINUOUS
 62
     7
100
AcDbLine
 10
177.4955899052
 20
57.0273021508
 30
0.0
 11
181.1455899052
 21
57.0273021508
 31
0.0
  0
LINE
  5
164
330
65
100
AcDbEntity
  8
アジャスター_大昌H150_12
  6
CONTINUOUS
 62
     7
100
AcDbLine
 10
181.2397368511
 20
57.1273021508
 30
0.0
 11
181.2455899052
 21
57.1273021508
 31
0.0
  0
LINE
  5
165
330
65
100
AcDbEntity
  8
アジャスター_大昌H150_12
  6
CONTINUOUS
 62
     7
100
AcDbLine
 10
181.2397368511
 20
57.9273021508
 30
0.0
 11
181.2397368511
 21
57.1273021508
 31
0.0
  0
LINE
  5
166
330
65
100
AcDbEntity
  8
アジャスター_大昌H150_12
  6
CONTINUOUS
 62
     7
100
AcDbLine
 10
181.2397368511
 20
57.9273021508
 30
0.0
 11
181.2455899052
 21
57.9273021508
 31
0.0
  0
LINE
  5
167
330
65
100
AcDbEntity
  8
アジャスター_大昌H150_12
  6
CONTINUOUS
 62
     7
100
AcDbLine
 10
181.1038208732
 20
57.9273021508
 30
0.0
 11
181.1038208732
 21
57.1273021508
 31
0.0
  0
LINE
  5
168
330
65
100
AcDbEntity
  8
アジャスター_大昌H150_12
  6
CONTINUOUS
 62
     7
100
AcDbLine
 10
181.0994545647
 20
57.1273021508
 30
0.0
 11
181.192159663
 21
57.1273021508
 31
0.0
  0
LINE
  5
169
330
65
100
AcDbEntity
  8
アジャスター_大昌H150_12
  6
CONTINUOUS
 62
     7
100
AcDbLine
 10
181.0994545647
 20
57.9273021508
 30
0.0
 11
181.0994545647
 21
57.1273021508
 31
0.0
  0
LINE
  5
16A
330
65
100
AcDbEntity
  8
アジャスター_大昌H150_12
  6
CONTINUOUS
 62
     7
100
AcDbLine
 10
181.192159663
 20
57.9273021508
 30
0.0
 11
181.192159663
 21
57.1273021508
 31
0.0
  0
LINE
  5
16B
330
65
100
AcDbEntity
  8
アジャスター_大昌H150_12
  6
CONTINUOUS
 62
     7
100
AcDbLine
 10
181.0994545647
 20
57.9273021508
 30
0.0
 11
181.192159663
 21
57.9273021508
 31
0.0
  0
LINE
  5
16C
330
65
100
AcDbEntity
  8
アジャスター_大昌H150_12
  6
CONTINUOUS
 62
     7
100
AcDbLine
 10
180.8374967696
 20
57.9273021508
 30
0.0
 11
180.8374967696
 21
57.1273021508
 31
0.0
  0
LINE
  5
16D
330
65
100
AcDbEntity
  8
アジャスター_大昌H150_12
  6
CONTINUOUS
 62
     7
100
AcDbLine
 10
180.7850446113
 20
57.1273021508
 30
0.0
 11
180.961380187
 21
57.1273021508
 31
0.0
  0
LINE
  5
16E
330
65
100
AcDbEntity
  8
アジャスター_大昌H150_12
  6
CONTINUOUS
 62
     7
100
AcDbLine
 10
180.7850446113
 20
57.9273021508
 30
0.0
 11
180.7850446113
 21
57.1273021508
 31
0.0
  0
LINE
  5
16F
330
65
100
AcDbEntity
  8
アジャスター_大昌H150_12
  6
CONTINUOUS
 62
     7
100
AcDbLine
 10
180.961380187
 20
57.9273021508
 30
0.0
 11
180.961380187
 21
57.1273021508
 31
0.0
  0
LINE
  5
170
330
65
100
AcDbEntity
  8
アジャスター_大昌H150_12
  6
CONTINUOUS
 62
     7
100
AcDbLine
 10
180.7850446113
 20
57.9273021508
 30
0.0
 11
180.961380187
 21
57.9273021508
 31
0.0
  0
LINE
  5
171
330
65
100
AcDbEntity
  8
アジャスター_大昌H150_12
  6
CONTINUOUS
 62
     7
100
AcDbLine
 10
180.4226872532
 20
57.9273021508
 30
0.0
 11
180.4226872532
 21
57.1273021508
 31
0.0
  0
LINE
  5
172
330
65
100
AcDbEntity
  8
アジャスター_大昌H150_12
  6
CONTINUOUS
 62
     7
100
AcDbLine
 10
180.3272836278
 20
57.1273021508
 30
0.0
 11
180.5699887261
 21
57.1273021508
 31
0.0
  0
LINE
  5
173
330
65
100
AcDbEntity
  8
アジャスター_大昌H150_12
  6
CONTINUOUS
 62
     7
100
AcDbLine
 10
180.3272836278
 20
57.9273021508
 30
0.0
 11
180.3272836278
 21
57.1273021508
 31
0.0
  0
LINE
  5
174
330
65
100
AcDbEntity
  8
アジャスター_大昌H150_12
  6
CONTINUOUS
 62
     7
100
AcDbLine
 10
180.5699887261
 20
57.9273021508
 30
0.0
 11
180.5699887261
 21
57.1273021508
 31
0.0
  0
LINE
  5
175
330
65
100
AcDbEntity
  8
アジャスター_大昌H150_12
  6
CONTINUOUS
 62
     7
100
AcDbLine
 10
180.3272836278
 20
57.9273021508
 30
0.0
 11
180.5699887261
 21
57.9273021508
 31
0.0
  0
LINE
  5
176
330
65
100
AcDbEntity
  8
アジャスター_大昌H150_12
  6
CONTINUOUS
 62
     7
100
AcDbLine
 10
179.8999967696
 20
57.9273021508
 30
0.0
 11
179.8999967696
 21
57.1273021508
 31
0.0
  0
LINE
  5
177
330
65
100
AcDbEntity
  8
アジャスター_大昌H150_12
  6
CONTINUOUS
 62
     7
100
AcDbLine
 10
179.7709804487
 20
57.1273021508
 30
0.0
 11
180.0562974036
 21
57.1273021508
 31
0.0
  0
LINE
  5
178
330
65
100
AcDbEntity
  8
アジャスター_大昌H150_12
  6
CONTINUOUS
 62
     7
100
AcDbLine
 10
179.7709804487
 20
57.9273021508
 30
0.0
 11
179.7709804487
 21
57.1273021508
 31
0.0
  0
LINE
  5
179
330
65
100
AcDbEntity
  8
アジャスター_大昌H150_12
  6
CONTINUOUS
 62
     7
100
AcDbLine
 10
180.0562974036
 20
57.9273021508
 30
0.0
 11
180.0562974036
 21
57.1273021508
 31
0.0
  0
LINE
  5
17A
330
65
100
AcDbEntity
  8
アジャスター_大昌H150_12
  6
CONTINUOUS
 62
     7
100
AcDbLine
 10
179.7709804487
 20
57.9273021508
 30
0.0
 11
180.0562974036
 21
57.9273021508
 31
0.0
  0
LINE
  5
17B
330
65
100
AcDbEntity
  8
アジャスター_大昌H150_12
  6
CONTINUOUS
 62
     7
100
AcDbLine
 10
179.3205899052
 20
57.9273021508
 30
0.0
 11
179.3205899052
 21
57.1273021508
 31
0.0
  0
LINE
  5
17C
330
65
100
AcDbEntity
  8
アジャスター_大昌H150_12
  6
CONTINUOUS
 62
     7
100
AcDbLine
 10
179.1705899052
 20
57.1273021508
 30
0.0
 11
179.4705899052
 21
57.1273021508
 31
0.0
  0
LINE
  5
17D
330
65
100
AcDbEntity
  8
アジャスター_大昌H150_12
  6
CONTINUOUS
 62
     7
100
AcDbLine
 10
179.1705899052
 20
57.9273021508
 30
0.0
 11
179.1705899052
 21
57.1273021508
 31
0.0
  0
LINE
  5
17E
330
65
100
AcDbEntity
  8
アジャスター_大昌H150_12
  6
CONTINUOUS
 62
     7
100
AcDbLine
 10
179.4705899052
 20
57.9273021508
 30
0.0
 11
179.4705899052
 21
57.1273021508
 31
0.0
  0
LINE
  5
17F
330
65
100
AcDbEntity
  8
アジャスター_大昌H150_12
  6
CONTINUOUS
 62
     7
100
AcDbLine
 10
179.1705899052
 20
57.9273021508
 30
0.0
 11
179.4705899052
 21
57.9273021508
 31
0.0
  0
LINE
  5
180
330
65
100
AcDbEntity
  8
アジャスター_大昌H150_12
  6
CONTINUOUS
 62
     7
100
AcDbLine
 10
178.7411830407
 20
57.9273021508
 30
0.0
 11
178.7411830407
 21
57.1273021508
 31
0.0
  0
LINE
  5
181
330
65
100
AcDbEntity
  8
アジャスター_大昌H150_12
  6
CONTINUOUS
 62
     7
100
AcDbLine
 10
178.5848824067
 20
57.1273021508
 30
0.0
 11
178.8701993616
 21
57.1273021508
 31
0.0
  0
LINE
  5
182
330
65
100
AcDbEntity
  8
アジャスター_大昌H150_12
  6
CONTINUOUS
 62
     7
100
AcDbLine
 10
178.5848824067
 20
57.9273021508
 30
0.0
 11
178.5848824067
 21
57.1273021508
 31
0.0
  0
LINE
  5
183
330
65
100
AcDbEntity
  8
アジャスター_大昌H150_12
  6
CONTINUOUS
 62
     7
100
AcDbLine
 10
178.8701993616
 20
57.9273021508
 30
0.0
 11
178.8701993616
 21
57.1273021508
 31
0.0
  0
LINE
  5
184
330
65
100
AcDbEntity
  8
アジャスター_大昌H150_12
  6
CONTINUOUS
 62
     7
100
AcDbLine
 10
178.5848824067
 20
57.9273021508
 30
0.0
 11
178.8701993616
 21
57.9273021508
 31
0.0
  0
LINE
  5
185
330
65
100
AcDbEntity
  8
アジャスター_大昌H150_12
  6
CONTINUOUS
 62
     7
100
AcDbLine
 10
178.2184925571
 20
57.9273021508
 30
0.0
 11
178.2184925571
 21
57.1273021508
 31
0.0
  0
LINE
  5
186
330
65
100
AcDbEntity
  8
アジャスター_大昌H150_12
  6
CONTINUOUS
 62
     7
100
AcDbLine
 10
178.0711910842
 20
57.1273021508
 30
0.0
 11
178.3138961825
 21
57.1273021508
 31
0.0
  0
LINE
  5
187
330
65
100
AcDbEntity
  8
アジャスター_大昌H150_12
  6
CONTINUOUS
 62
     7
100
AcDbLine
 10
178.0711910842
 20
57.9273021508
 30
0.0
 11
178.0711910842
 21
57.1273021508
 31
0.0
  0
LINE
  5
188
330
65
100
AcDbEntity
  8
アジャスター_大昌H150_12
  6
CONTINUOUS
 62
     7
100
AcDbLine
 10
178.3138961825
 20
57.9273021508
 30
0.0
 11
178.3138961825
 21
57.1273021508
 31
0.0
  0
LINE
  5
189
330
65
100
AcDbEntity
  8
アジャスター_大昌H150_12
  6
CONTINUOUS
 62
     7
100
AcDbLine
 10
178.0711910842
 20
57.9273021508
 30
0.0
 11
178.3138961825
 21
57.9273021508
 31
0.0
  0
LINE
  5
18A
330
65
100
AcDbEntity
  8
アジャスター_大昌H150_12
  6
CONTINUOUS
 62
     7
100
AcDbLine
 10
177.8036830407
 20
57.9273021508
 30
0.0
 11
177.8036830407
 21
57.1273021508
 31
0.0
  0
LINE
  5
18B
330
65
100
AcDbEntity
  8
アジャスター_大昌H150_12
  6
CONTINUOUS
 62
     7
100
AcDbLine
 10
177.6797996234
 20
57.1273021508
 30
0.0
 11
177.8561351991
 21
57.1273021508
 31
0.0
  0
LINE
  5
18C
330
65
100
AcDbEntity
  8
アジャスター_大昌H150_12
  6
CONTINUOUS
 62
     7
100
AcDbLine
 10
177.6797996234
 20
57.9273021508
 30
0.0
 11
177.6797996234
 21
57.1273021508
 31
0.0
  0
LINE
  5
18D
330
65
100
AcDbEntity
  8
アジャスター_大昌H150_12
  6
CONTINUOUS
 62
     7
100
AcDbLine
 10
177.8561351991
 20
57.9273021508
 30
0.0
 11
177.8561351991
 21
57.1273021508
 31
0.0
  0
LINE
  5
18E
330
65
100
AcDbEntity
  8
アジャスター_大昌H150_12
  6
CONTINUOUS
 62
     7
100
AcDbLine
 10
177.6797996234
 20
57.9273021508
 30
0.0
 11
177.8561351991
 21
57.9273021508
 31
0.0
  0
LINE
  5
18F
330
65
100
AcDbEntity
  8
アジャスター_大昌H150_12
  6
CONTINUOUS
 62
     7
100
AcDbLine
 10
177.5373589371
 20
57.9273021508
 30
0.0
 11
177.5373589371
 21
57.1273021508
 31
0.0
  0
LINE
  5
190
330
65
100
AcDbEntity
  8
アジャスター_大昌H150_12
  6
CONTINUOUS
 62
     7
100
AcDbLine
 10
177.4490201474
 20
57.1273021508
 30
0.0
 11
177.5417252457
 21
57.1273021508
 31
0.0
  0
LINE
  5
191
330
65
100
AcDbEntity
  8
アジャスター_大昌H150_12
  6
CONTINUOUS
 62
     7
100
AcDbLine
 10
177.4490201474
 20
57.9273021508
 30
0.0
 11
177.4490201474
 21
57.1273021508
 31
0.0
  0
LINE
  5
192
330
65
100
AcDbEntity
  8
アジャスター_大昌H150_12
  6
CONTINUOUS
 62
     7
100
AcDbLine
 10
177.5417252457
 20
57.9273021508
 30
0.0
 11
177.5417252457
 21
57.1273021508
 31
0.0
  0
LINE
  5
193
330
65
100
AcDbEntity
  8
アジャスター_大昌H150_12
  6
CONTINUOUS
 62
     7
100
AcDbLine
 10
177.4490201474
 20
57.9273021508
 30
0.0
 11
177.5417252457
 21
57.9273021508
 31
0.0
  0
LINE
  5
194
330
65
100
AcDbEntity
  8
アジャスター_大昌H150_12
  6
CONTINUOUS
 62
     7
100
AcDbLine
 10
177.4014429593
 20
57.1273021508
 30
0.0
 11
177.3955899052
 21
57.1273021508
 31
0.0
  0
LINE
  5
195
330
65
100
AcDbEntity
  8
アジャスター_大昌H150_12
  6
CONTINUOUS
 62
     7
100
AcDbLine
 10
177.4014429593
 20
57.9273021508
 30
0.0
 11
177.4014429593
 21
57.1273021508
 31
0.0
  0
LINE
  5
196
330
65
100
AcDbEntity
  8
アジャスター_大昌H150_12
  6
CONTINUOUS
 62
     7
100
AcDbLine
 10
177.4014429593
 20
57.9273021508
 30
0.0
 11
177.3955899052
 21
57.9273021508
 31
0.0
  0
LINE
  5
197
330
65
100
AcDbEntity
  8
アジャスター_大昌H150_12
  6
CONTINUOUS
 62
     7
100
AcDbLine
 10
179.8205899052
 20
58.0273021508
 30
0.0
 11
179.8205899052
 21
59.0773021508
 31
0.0
  0
LINE
  5
198
330
65
100
AcDbEntity
  8
アジャスター_大昌H150_12
  6
CONTINUOUS
 62
     7
100
AcDbLine
 10
178.8205899052
 20
59.0773021508
 30
0.0
 11
178.8205899052
 21
58.0273021508
 31
0.0
  0
ARC
  5
199
330
65
100
AcDbEntity
  8
アジャスター_大昌H150_12
  6
CONTINUOUS
 62
     7
100
AcDbCircle
 10
177.4955899052
 20
57.1273021508
 30
0.0
 40
0.1000000000000001
100
AcDbArc
 50
180.0
 51
270.0
  0
ARC
  5
19A
330
65
100
AcDbEntity
  8
アジャスター_大昌H150_12
  6
CONTINUOUS
 62
     7
100
AcDbCircle
 10
181.1455899052
 20
57.1273021508
 30
0.0
 40
0.1
100
AcDbArc
 50
270.0
 51
0.0
  0
LINE
  5
19B
330
65
100
AcDbEntity
  8
アジャスター_大昌H150_12
  6
CONTINUOUS
 62
     7
100
AcDbLine
 10
181.2455899052
 20
57.9273021508
 30
0.0
 11
181.2455899052
 21
58.0273021508
 31
0.0
  0
LINE
  5
19C
330
65
100
AcDbEntity
  8
アジャスター_大昌H150_12
  6
CONTINUOUS
 62
     7
100
AcDbLine
 10
177.3955899052
 20
58.0273021508
 30
0.0
 11
177.3955899052
 21
57.9273021508
 31
0.0
  0
LINE
  5
19E
330
65
100
AcDbEntity
  8
転点防止金具_前_160803_
  6
CONTINUOUS
 62
     7
100
AcDbLine
 10
98.0705899052
 20
67.3054441076
 30
0.0
 11
94.7705899052
 21
67.3054441076
 31
0.0
  0
LINE
  5
19F
330
65
100
AcDbEntity
  8
転点防止金具_前_160803_
  6
CONTINUOUS
 62
     7
100
AcDbLine
 10
98.0705899052
 20
67.3054441076
 30
0.0
 11
98.0705899052
 21
64.7954197129
 31
0.0
  0
LINE
  5
1A0
330
65
100
AcDbEntity
  8
転点防止金具_前_160803_
  6
CONTINUOUS
 62
     7
100
AcDbLine
 10
94.7705899052
 20
67.3054441076
 30
0.0
 11
94.7705899052
 21
64.7954197129
 31
0.0
  0
LINE
  5
1A1
330
65
100
AcDbEntity
  8
転点防止金具_前_160803_
  6
CONTINUOUS
 62
     7
100
AcDbLine
 10
98.0705899052
 20
64.263213213
 30
0.0
 11
98.0705899052
 21
59.6773021508
 31
0.0
  0
LINE
  5
1A2
330
65
100
AcDbEntity
  8
転点防止金具_前_160803_
  6
CONTINUOUS
 62
     7
100
AcDbLine
 10
94.7705899052
 20
64.263213213
 30
0.0
 11
94.7705899052
 21
59.6773021508
 31
0.0
  0
LINE
  5
1A3
330
65
100
AcDbEntity
  8
転点防止金具_前_160803_
  6
CONTINUOUS
 62
     7
100
AcDbLine
 10
98.0705899052
 20
64.263213213
 30
0.0
 11
98.0705899052
 21
64.7954197129
 31
0.0
  0
LINE
  5
1A4
330
65
100
AcDbEntity
  8
転点防止金具_前_160803_
  6
CONTINUOUS
 62
     7
100
AcDbLine
 10
94.7705899052
 20
64.7954197129
 30
0.0
 11
94.7705899052
 21
64.263213213
 31
0.0
  0
LINE
  5
1A5
330
65
100
AcDbEntity
  8
転点防止金具_前_160803_
  6
CONTINUOUS
 62
     7
100
AcDbLine
 10
94.7705899052
 20
59.6773021508
 30
0.0
 11
94.7705899052
 21
59.0773021508
 31
0.0
  0
LINE
  5
1A6
330
65
100
AcDbEntity
  8
転点防止金具_前_160803_
  6
CONTINUOUS
 62
     7
100
AcDbLine
 10
98.0705899052
 20
59.6773021508
 30
0.0
 11
98.0705899052
 21
59.0773021508
 31
0.0
  0
LINE
  5
1A7
330
65
100
AcDbEntity
  8
転点防止金具_前_160803_
  6
CONTINUOUS
 62
     7
100
AcDbLine
 10
94.7705899052
 20
59.0773021508
 30
0.0
 11
95.6205899052
 21
59.0773021508
 31
0.0
  0
LINE
  5
1A8
330
65
100
AcDbEntity
  8
転点防止金具_前_160803_
  6
CONTINUOUS
 62
     7
100
AcDbLine
 10
94.7705899052
 20
67.7673838738
 30
0.0
 11
94.7705899052
 21
67.3054441076
 31
0.0
  0
LINE
  5
1A9
330
65
100
AcDbEntity
  8
転点防止金具_前_160803_
  6
CONTINUOUS
 62
     7
100
AcDbLine
 10
94.7205899052
 20
67.7673838738
 30
0.0
 11
94.7705899052
 21
67.7673838738
 31
0.0
  0
LINE
  5
1AA
330
65
100
AcDbEntity
  8
転点防止金具_前_160803_
  6
CONTINUOUS
 62
     7
100
AcDbLine
 10
94.7205899052
 20
67.5377738144
 30
0.0
 11
94.7705899052
 21
67.5377738144
 31
0.0
  0
ELLIPSE
  5
1AB
330
65
100
AcDbEntity
  8
転点防止金具_前_160803_
  6
CONTINUOUS
 62
     7
100
AcDbEllipse
 10
94.7205899052
 20
67.5377738144
 30
0.0
 11
0.6000000000000006
 21
-2.775557561562891E-15
 31
0.0
210
0.0
220
0.0
230
1.0
 40
0.3826834324
 41
1.570796326794922
 42
3.141592653589805
  0
LINE
  5
1AC
330
65
100
AcDbEntity
  8
転点防止金具_前_160803_
  6
CONTINUOUS
 62
     7
100
AcDbLine
 10
94.1205899052
 20
67.5377738144
 30
0.0
 11
94.1205899052
 21
67.860211979
 31
0.0
  0
LINE
  5
1AD
330
65
100
AcDbEntity
  8
転点防止金具_前_160803_
  6
CONTINUOUS
 62
     7
100
AcDbLine
 10
96.4205899052
 20
59.0773021508
 30
0.0
 11
98.0705899052
 21
59.0773021508
 31
0.0
  0
LINE
  5
1AE
330
65
100
AcDbEntity
  8
転点防止金具_前_160803_
  6
CONTINUOUS
 62
     7
100
AcDbLine
 10
95.6205899052
 20
59.0773021508
 30
0.0
 11
95.6205899052
 21
59.6773021508
 31
0.0
  0
LINE
  5
1AF
330
65
100
AcDbEntity
  8
転点防止金具_前_160803_
  6
CONTINUOUS
 62
     7
100
AcDbLine
 10
96.4205899052
 20
59.6773021508
 30
0.0
 11
96.4205899052
 21
59.0773021508
 31
0.0
  0
LINE
  5
1B0
330
65
100
AcDbEntity
  8
転点防止金具_前_160803_
  6
CONTINUOUS
 62
     7
100
AcDbLine
 10
95.6205899052
 20
59.7773021508
 30
0.0
 11
95.6205899052
 21
59.6773021508
 31
0.0
  0
LINE
  5
1B1
330
65
100
AcDbEntity
  8
転点防止金具_前_160803_
  6
CONTINUOUS
 62
     7
100
AcDbLine
 10
96.4205899052
 20
59.6773021508
 30
0.0
 11
96.4205899052
 21
59.7773021508
 31
0.0
  0
ARC
  5
1B2
330
65
100
AcDbEntity
  8
転点防止金具_前_160803_
  6
CONTINUOUS
 62
     7
100
AcDbCircle
 10
96.0205899052
 20
59.7773021508
 30
0.0
 40
0.4000000000000004
100
AcDbArc
 50
0.0
 51
180.0
  0
LINE
  5
1B3
330
65
100
AcDbEntity
  8
転点防止金具_前_160803_
  6
CONTINUOUS
 62
     7
100
AcDbLine
 10
95.6205899052
 20
59.6773021508
 30
0.0
 11
96.4205899052
 21
59.6773021508
 31
0.0
  0
LINE
  5
1B4
330
65
100
AcDbEntity
  8
転点防止金具_前_160803_
  6
CONTINUOUS
 62
     7
100
AcDbLine
 10
95.6205899052
 20
59.0773021508
 30
0.0
 11
96.4205899052
 21
59.0773021508
 31
0.0
  0
LINE
  5
1B5
330
65
100
AcDbEntity
  8
転点防止金具_前_160803_
  6
CONTINUOUS
 62
     7
100
AcDbLine
 10
98.0705899052
 20
67.8585053269
 30
0.0
 11
98.0705899052
 21
67.3054441076
 31
0.0
  0
LINE
  5
1B6
330
65
100
AcDbEntity
  8
転点防止金具_前_160803_
  6
CONTINUOUS
 62
     7
100
AcDbLine
 10
94.7205899052
 20
66.9254803226
 30
0.0
 11
94.7205899052
 21
67.5377738144
 31
0.0
  0
LINE
  5
1B7
330
65
100
AcDbEntity
  8
転点防止金具_前_160803_
  6
CONTINUOUS
 62
     7
100
AcDbLine
 10
94.1205899052
 20
66.9254803226
 30
0.0
 11
94.1205899052
 21
67.5377738144
 31
0.0
  0
LINE
  5
1B8
330
65
100
AcDbEntity
  8
転点防止金具_前_160803_
  6
CONTINUOUS
 62
     7
100
AcDbLine
 10
94.7205899052
 20
66.9102562291
 30
0.0
 11
94.7205899052
 21
66.9254803226
 31
0.0
  0
LINE
  5
1B9
330
65
100
AcDbEntity
  8
転点防止金具_前_160803_
  6
CONTINUOUS
 62
     7
100
AcDbLine
 10
94.1205899052
 20
66.9254803226
 30
0.0
 11
94.1205899052
 21
66.9102562291
 31
0.0
  0
LINE
  5
1BA
330
65
100
AcDbEntity
  8
転点防止金具_前_160803_
  6
CONTINUOUS
 62
     7
100
AcDbLine
 10
94.1205899052
 20
66.9102562291
 30
0.0
 11
94.7205899052
 21
66.9102562291
 31
0.0
  0
LINE
  5
1BC
330
65
100
AcDbEntity
  8
回転軸140327_0
  6
CONTINUOUS
 62
     7
100
AcDbLine
 10
98.7005899052
 20
71.4045380389
 30
0.0
 11
98.7005899052
 21
72.7045380389
 31
0.0
  0
LINE
  5
1BD
330
65
100
AcDbEntity
  8
回転軸140327_0
  6
CONTINUOUS
 62
     7
100
AcDbLine
 10
98.6505899052
 20
72.7545380389
 30
0.0
 11
98.6505899052
 21
71.3545380389
 31
0.0
  0
LINE
  5
1BE
330
65
100
AcDbEntity
  8
回転軸140327_0
  6
CONTINUOUS
 62
     7
100
AcDbLine
 10
98.4005899052
 20
71.3545380389
 30
0.0
 11
98.6505899052
 21
71.3545380389
 31
0.0
  0
LINE
  5
1BF
330
65
100
AcDbEntity
  8
回転軸140327_0
  6
CONTINUOUS
 62
     7
100
AcDbLine
 10
98.6505899052
 20
72.7545380389
 30
0.0
 11
98.4005899052
 21
72.7545380389
 31
0.0
  0
LINE
  5
1C0
330
65
100
AcDbEntity
  8
回転軸140327_0
  6
CONTINUOUS
 62
     7
100
AcDbLine
 10
98.6505899052
 20
71.3545380389
 30
0.0
 11
98.7005899052
 21
71.4045380389
 31
0.0
  0
LINE
  5
1C1
330
65
100
AcDbEntity
  8
回転軸140327_0
  6
CONTINUOUS
 62
     7
100
AcDbLine
 10
98.7005899052
 20
72.7045380389
 30
0.0
 11
98.6505899052
 21
72.7545380389
 31
0.0
  0
LINE
  5
1C2
330
65
100
AcDbEntity
  8
回転軸140327_0
  6
CONTINUOUS
 62
     7
100
AcDbLine
 10
176.6405899052
 20
72.7045380389
 30
0.0
 11
176.6405899052
 21
71.4045380389
 31
0.0
  0
LINE
  5
1C3
330
65
100
AcDbEntity
  8
回転軸140327_0
  6
CONTINUOUS
 62
     7
100
AcDbLine
 10
176.6905899052
 20
71.3545380389
 30
0.0
 11
176.6905899052
 21
72.7545380389
 31
0.0
  0
LINE
  5
1C4
330
65
100
AcDbEntity
  8
回転軸140327_0
  6
CONTINUOUS
 62
     7
100
AcDbLine
 10
176.9405899052
 20
72.7545380389
 30
0.0
 11
176.6905899052
 21
72.7545380389
 31
0.0
  0
LINE
  5
1C5
330
65
100
AcDbEntity
  8
回転軸140327_0
  6
CONTINUOUS
 62
     7
100
AcDbLine
 10
176.6905899052
 20
71.3545380389
 30
0.0
 11
176.9405899052
 21
71.3545380389
 31
0.0
  0
LINE
  5
1C6
330
65
100
AcDbEntity
  8
回転軸140327_0
  6
CONTINUOUS
 62
     7
100
AcDbLine
 10
176.6905899052
 20
72.7545380389
 30
0.0
 11
176.6405899052
 21
72.7045380389
 31
0.0
  0
LINE
  5
1C7
330
65
100
AcDbEntity
  8
回転軸140327_0
  6
CONTINUOUS
 62
     7
100
AcDbLine
 10
176.6405899052
 20
71.4045380389
 30
0.0
 11
176.6905899052
 21
71.3545380389
 31
0.0
  0
LINE
  5
1C9
330
65
100
AcDbEntity
  8
スクリベット5102_10031
  6
CONTINUOUS
 62
     7
100
AcDbLine
 10
98.3505899052
 20
75.9468219396
 30
0.0
 11
98.3505899052
 21
74.5468219396
 31
0.0
  0
ELLIPSE
  5
1CA
330
65
100
AcDbEntity
  8
スクリベット5102_10031
  6
CONTINUOUS
 62
     7
100
AcDbEllipse
 10
97.512924768
 20
75.2468219398
 30
0.0
 11
-7.337269680718349E-9
 21
1.100481472362888
 31
0.0
210
0.0
220
0.0
230
1.0
 40
0.9848077523
 41
4.823205766364063
 42
4.874362209526419
  0
ARC
  5
1CB
330
65
100
AcDbEntity
  8
スクリベット5102_10031
  6
CONTINUOUS
 62
     7
100
AcDbCircle
 10
97.457363472
 20
75.2468219396
 30
0.0
 40
1.121712817376348
100
AcDbArc
 50
357.4774082831
 51
2.5225917169
  0
SPLINE
  5
1CC
330
65
100
AcDbEntity
  8
スクリベット5102_10031
  6
CONTINUOUS
 62
     7
100
AcDbSpline
210
0.0
220
0.0
230
1.0
 70
     8
 71
     3
 72
    10
 73
     6
 74
     0
 42
0.0000002344868897
 43
0.0000000001
 40
0.0
 40
0.0
 40
0.0
 40
0.0
 40
0.5
 40
0.5
 40
1.0
 40
1.0
 40
1.0
 40
1.0
 10
98.57798928775519
 20
75.1974516472843
 30
0.0
 10
98.57752328027344
 20
75.18687403086757
 30
0.0
 10
98.57773622508194
 20
75.17648852453117
 30
0.0
 10
98.57938854780527
 20
75.1614247498797
 30
0.0
 10
98.58082013116143
 20
75.15683405756094
 30
0.0
 10
98.58250207175861
 20
75.15653748605372
 30
0.0
  0
SPLINE
  5
1CD
330
65
100
AcDbEntity
  8
スクリベット5102_10031
  6
CONTINUOUS
 62
     7
100
AcDbSpline
210
0.0
220
0.0
230
1.0
 70
     8
 71
     3
 72
    10
 73
     6
 74
     0
 42
0.0000003235086369
 43
0.0000000001
 40
0.0
 40
0.0
 40
0.0
 40
0.0
 40
0.4999999999999996
 40
0.4999999999999996
 40
1.0
 40
1.0
 40
1.0
 40
1.0
 10
98.5900397616159
 20
75.12511956122017
 30
0.0
 10
98.59090225240365
 20
75.13299028286853
 30
0.0
 10
98.59139146455189
 20
75.14068629937724
 30
0.0
 10
98.59139060743213
 20
75.15175200080049
 30
0.0
 10
98.59090224011702
 20
75.15505630972964
 30
0.0
 10
98.5900397616159
 20
75.15520838795968
 30
0.0
  0
ELLIPSE
  5
1CE
330
65
100
AcDbEntity
  8
スクリベット5102_10031
  6
CONTINUOUS
 62
     7
100
AcDbEllipse
 10
97.5129247661
 20
75.2468219396
 30
0.0
 11
3.160804951107821E-10
 21
-1.100481473337594
 31
0.0
210
0.0
220
0.0
230
1.0
 40
0.9848077532
 41
1.408823090709099
 42
1.459979533826778
  0
ARC
  5
1CF
330
65
100
AcDbEntity
  8
スクリベット5102_10031
  6
CONTINUOUS
 62
     7
100
AcDbCircle
 10
98.7951251592
 20
75.0250302502
 30
0.0
 40
0.2171934041124857
100
AcDbArc
 50
168.2252423993
 51
178.6811927476
  0
ELLIPSE
  5
1D0
330
65
100
AcDbEntity
  8
スクリベット5102_10031
  6
CONTINUOUS
 62
     7
100
AcDbEllipse
 10
98.5702307144
 20
75.1568665518
 30
0.0
 11
0.003472963553502463
 21
0.0196961550602226
 31
0.0
210
0.0
220
0.0
230
1.0
 40
0.9938661003
 41
4.802853940113261
 42
6.04210787001581
  0
LINE
  5
1D1
330
65
100
AcDbEntity
  8
スクリベット5102_10031
  6
CONTINUOUS
 62
     7
100
AcDbLine
 10
98.4758577257
 20
75.7568219396
 30
0.0
 11
98.4758577257
 21
74.7368219396
 31
0.0
  0
LINE
  5
1D2
330
65
100
AcDbEntity
  8
スクリベット5102_10031
  6
CONTINUOUS
 62
     7
100
AcDbLine
 10
98.4809959129
 20
75.7468219396
 30
0.0
 11
98.4809959129
 21
74.7468219396
 31
0.0
  0
ARC
  5
1D3
330
65
100
AcDbEntity
  8
スクリベット5102_10031
  6
CONTINUOUS
 62
     7
100
AcDbCircle
 10
97.4955899052
 20
75.2468219396
 30
0.0
 40
1.105
100
AcDbArc
 50
27.4864262504
 51
39.3076481161
  0
ARC
  5
1D4
330
65
100
AcDbEntity
  8
スクリベット5102_10031
  6
CONTINUOUS
 62
     7
100
AcDbCircle
 10
97.4955899052
 20
75.2468219396
 30
0.0
 40
1.105000000000002
100
AcDbArc
 50
320.6923518839
 51
332.5135737496
  0
LINE
  5
1D5
330
65
100
AcDbEntity
  8
スクリベット5102_10031
  6
CONTINUOUS
 62
     7
100
AcDbLine
 10
98.3005899052
 20
74.5468219396
 30
0.0
 11
98.3505899052
 21
74.5468219396
 31
0.0
  0
LINE
  5
1D6
330
65
100
AcDbEntity
  8
スクリベット5102_10031
  6
CONTINUOUS
 62
     7
100
AcDbLine
 10
98.3505899052
 20
75.9468219396
 30
0.0
 11
98.3005899052
 21
75.9468219396
 31
0.0
  0
ARC
  5
1D7
330
65
100
AcDbEntity
  8
スクリベット5102_10031
  6
CONTINUOUS
 62
     7
100
AcDbCircle
 10
98.55946566
 20
75.4598791578
 30
0.0
 40
0.0200000000000011
100
AcDbArc
 50
354.8175224393
 51
11.3245383951
  0
SPLINE
  5
1D8
330
65
100
AcDbEntity
  8
スクリベット5102_10031
  6
CONTINUOUS
 62
     7
100
AcDbSpline
210
0.0
220
0.0
230
1.0
 70
     8
 71
     3
 72
    12
 73
     8
 74
     0
 42
0.0000002020104314
 43
0.0000000001
 40
0.0
 40
0.0
 40
0.0
 40
0.0
 40
0.0890465567410033
 40
0.2900465495671982
 40
0.4884372344444334
 40
0.6109373492308354
 40
0.6774915954754606
 40
0.6774915954754606
 40
0.6774915954754606
 40
0.6774915954754606
 10
98.58248889415012
 20
75.42496825861481
 30
0.0
 10
98.5821169822901
 20
75.4272475247043
 30
0.0
 10
98.58107796877324
 20
75.43363844879312
 30
0.0
 10
98.57953129478476
 20
75.44463064197207
 30
0.0
 10
98.578487546192
 20
75.45344049315514
 30
0.0
 10
98.57817177481094
 20
75.45739858000572
 30
0.0
 10
98.57815684671853
 20
75.45819655410119
 30
0.0
 10
98.57815649530771
 20
75.45818406023325
 30
0.0
  0
SPLINE
  5
1D9
330
65
100
AcDbEntity
  8
スクリベット5102_10031
  6
CONTINUOUS
 62
     7
100
AcDbSpline
210
0.0
220
0.0
230
1.0
 70
     8
 71
     3
 72
    15
 73
    11
 74
     0
 42
0.0000001708132453
 43
0.0000000001
 40
0.1238161199988566
 40
0.1238161199988566
 40
0.1238161199988566
 40
0.1238161199988566
 40
0.151816720498118
 40
0.2339956019906795
 40
0.3087384674604509
 40
0.3808737451993719
 40
0.466229532048341
 40
0.6669820502227157
 40
0.866034585301823
 40
1.0
 40
1.0
 40
1.0
 40
1.0
 10
98.58182599228674
 20
75.32039741128408
 30
0.0
 10
98.58234304321728
 20
75.32077136151892
 30
0.0
 10
98.58431076730082
 20
75.32233973320078
 30
0.0
 10
98.58706110953335
 20
75.32533435997279
 30
0.0
 10
98.58936156971815
 20
75.32963018963682
 30
0.0
 10
98.59063021467568
 20
75.33377847844194
 30
0.0
 10
98.59148506694874
 20
75.3392156424906
 30
0.0
 10
98.59168022430214
 20
75.34673774651405
 30
0.0
 10
98.59117667401485
 20
75.35805378933996
 30
0.0
 10
98.59041970714951
 20
75.36517180375152
 30
0.0
 10
98.59005737421822
 20
75.36850167450014
 30
0.0
  0
SPLINE
  5
1DA
330
65
100
AcDbEntity
  8
スクリベット5102_10031
  6
CONTINUOUS
 62
     7
100
AcDbSpline
210
0.0
220
0.0
230
1.0
 70
     8
 71
     3
 72
    12
 73
     8
 74
     0
 42
0.0000002187048574
 43
0.0000000001
 40
0.0
 40
0.0
 40
0.0
 40
0.0
 40
0.0679665707567294
 40
0.2682418097133805
 40
0.4264812101667656
 40
0.5395258693465264
 40
0.6159711598149414
 40
0.6159711598149414
 40
0.6159711598149414
 40
0.6159711598149414
 10
98.57838232228433
 20
75.29799107900718
 30
0.0
 10
98.57830076919184
 20
75.29959415791483
 30
0.0
 10
98.57803059991937
 20
75.30503983895339
 30
0.0
 10
98.57823172456784
 20
75.31403965052274
 30
0.0
 10
98.57882436849002
 20
75.32161670067235
 30
0.0
 10
98.57944037125289
 20
75.32532985379622
 30
0.0
 10
98.57964775097768
 20
75.3260367079933
 30
0.0
 10
98.57964677208636
 20
75.32603266230691
 30
0.0
  0
LINE
  5
1DB
330
65
100
AcDbEntity
  8
スクリベット5102_10031
  6
CONTINUOUS
 62
     7
100
AcDbLine
 10
98.5784319506
 20
75.1967288385
 30
0.0
 11
98.578462114
 21
75.1974671096
 31
0.0
  0
ARC
  5
1DC
330
65
100
AcDbEntity
  8
スクリベット5102_10031
  6
CONTINUOUS
 62
     7
100
AcDbCircle
 10
98.55946566
 20
75.0337647213
 30
0.0
 40
0.0200000000000021
100
AcDbArc
 50
348.6754616049
 51
16.9671789399
  0
ARC
  5
1DD
330
65
100
AcDbEntity
  8
スクリベット5102_10031
  6
CONTINUOUS
 62
     7
100
AcDbCircle
 10
97.4955899052
 20
75.2468219396
 30
0.0
 40
1.104999999999999
100
AcDbArc
 50
11.3245383951
 51
26.9034680361
  0
ARC
  5
1DE
330
65
100
AcDbEntity
  8
スクリベット5102_10031
  6
CONTINUOUS
 62
     7
100
AcDbCircle
 10
97.4955899052
 20
75.2468219396
 30
0.0
 40
1.105000000000001
100
AcDbArc
 50
333.0965319639
 51
348.6754616049
  0
LINE
  5
1DF
330
65
100
AcDbEntity
  8
スクリベット5102_10031
  6
CONTINUOUS
 62
     7
100
AcDbLine
 10
98.4809959129
 20
75.7468219396
 30
0.0
 11
98.4758577257
 21
75.7468219396
 31
0.0
  0
LINE
  5
1E0
330
65
100
AcDbEntity
  8
スクリベット5102_10031
  6
CONTINUOUS
 62
     7
100
AcDbLine
 10
98.4758577257
 20
74.7468219396
 30
0.0
 11
98.4809959129
 21
74.7468219396
 31
0.0
  0
LINE
  5
1E1
330
65
100
AcDbEntity
  8
スクリベット5102_10031
  6
CONTINUOUS
 62
     7
100
AcDbLine
 10
176.9905899052
 20
74.5468219396
 30
0.0
 11
176.9905899052
 21
75.9468219396
 31
0.0
  0
ELLIPSE
  5
1E2
330
65
100
AcDbEntity
  8
スクリベット5102_10031
  6
CONTINUOUS
 62
     7
100
AcDbEllipse
 10
177.8282550424
 20
75.2468219398
 30
0.0
 11
7.343392560699159E-9
 21
1.100481472348191
 31
0.0
210
0.0
220
0.0
230
1.0
 40
0.9848077523
 41
1.408823097660102
 42
1.459979540823168
  0
SPLINE
  5
1E3
330
65
100
AcDbEntity
  8
スクリベット5102_10031
  6
CONTINUOUS
 62
     7
100
AcDbSpline
210
0.0
220
0.0
230
1.0
 70
     8
 71
     3
 72
    10
 73
     6
 74
     0
 42
0.0000003235086369
 43
0.0000000001
 40
0.0
 40
0.0
 40
0.0
 40
0.0
 40
0.4999999999999998
 40
0.4999999999999998
 40
1.0
 40
1.0
 40
1.0
 40
1.0
 10
176.7511400487396
 20
75.36852431795641
 30
0.0
 10
176.7502775579519
 20
75.36065359630807
 30
0.0
 10
176.7497883458036
 20
75.35295757979937
 30
0.0
 10
176.7497892029234
 20
75.34189187837612
 30
0.0
 10
176.7502775702385
 20
75.33858756944696
 30
0.0
 10
176.7511400487396
 20
75.33843549121693
 30
0.0
  0
SPLINE
  5
1E4
330
65
100
AcDbEntity
  8
スクリベット5102_10031
  6
CONTINUOUS
 62
     7
100
AcDbSpline
210
0.0
220
0.0
230
1.0
 70
     8
 71
     3
 72
    10
 73
     6
 74
     0
 42
0.0000002344868897
 43
0.0000000001
 40
0.0
 40
0.0
 40
0.0
 40
0.0
 40
0.5
 40
0.5
 40
1.0
 40
1.0
 40
1.0
 40
1.0
 10
176.7631905226003
 20
75.2961922318923
 30
0.0
 10
176.763656530082
 20
75.30676984830903
 30
0.0
 10
176.7634435852736
 20
75.31715535464544
 30
0.0
 10
176.7617912625502
 20
75.3322191292969
 30
0.0
 10
176.7603596791941
 20
75.33680982161566
 30
0.0
 10
176.7586777385969
 20
75.33710639312288
 30
0.0
  0
ARC
  5
1E5
330
65
100
AcDbEntity
  8
スクリベット5102_10031
  6
CONTINUOUS
 62
     7
100
AcDbCircle
 10
177.8838163383
 20
75.2468219396
 30
0.0
 40
1.121712817376281
100
AcDbArc
 50
177.4774082831
 51
182.5225917169
  0
ELLIPSE
  5
1E6
330
65
100
AcDbEntity
  8
スクリベット5102_10031
  6
CONTINUOUS
 62
     7
100
AcDbEllipse
 10
177.8282550433
 20
75.2468219395
 30
0.0
 11
2.573391499893774E-9
 21
-1.100481472850054
 31
0.0
210
0.0
220
0.0
230
1.0
 40
0.9848077527
 41
4.823205770694697
 42
4.874362213834981
  0
ELLIPSE
  5
1E7
330
65
100
AcDbEntity
  8
スクリベット5102_10031
  6
CONTINUOUS
 62
     7
100
AcDbEllipse
 10
176.7709490959
 20
75.3367773274
 30
0.0
 11
0.00347296355364679
 21
0.01969615506019207
 31
0.0
210
0.0
220
0.0
230
1.0
 40
0.9938661003
 41
1.661261286530817
 42
2.908109647413772
  0
LINE
  5
1E8
330
65
100
AcDbEntity
  8
スクリベット5102_10031
  6
CONTINUOUS
 62
     7
100
AcDbLine
 10
176.8653220846
 20
74.7368219396
 30
0.0
 11
176.8653220846
 21
75.7568219396
 31
0.0
  0
LINE
  5
1E9
330
65
100
AcDbEntity
  8
スクリベット5102_10031
  6
CONTINUOUS
 62
     7
100
AcDbLine
 10
176.8601838975
 20
74.7468219396
 30
0.0
 11
176.8601838975
 21
75.7468219396
 31
0.0
  0
ARC
  5
1EA
330
65
100
AcDbEntity
  8
スクリベット5102_10031
  6
CONTINUOUS
 62
     7
100
AcDbCircle
 10
177.8455899052
 20
75.2468219396
 30
0.0
 40
1.105000000000001
100
AcDbArc
 50
140.6923518839
 51
152.5135737496
  0
ARC
  5
1EB
330
65
100
AcDbEntity
  8
スクリベット5102_10031
  6
CONTINUOUS
 62
     7
100
AcDbCircle
 10
177.8455899052
 20
75.2468219396
 30
0.0
 40
1.105000000000001
100
AcDbArc
 50
207.4864262504
 51
219.3076481161
  0
LINE
  5
1EC
330
65
100
AcDbEntity
  8
スクリベット5102_10031
  6
CONTINUOUS
 62
     7
100
AcDbLine
 10
177.0405899052
 20
75.9468219396
 30
0.0
 11
176.9905899052
 21
75.9468219396
 31
0.0
  0
LINE
  5
1ED
330
65
100
AcDbEntity
  8
スクリベット5102_10031
  6
CONTINUOUS
 62
     7
100
AcDbLine
 10
176.9905899052
 20
74.5468219396
 30
0.0
 11
177.0405899052
 21
74.5468219396
 31
0.0
  0
ARC
  5
1EE
330
65
100
AcDbEntity
  8
スクリベット5102_10031
  6
CONTINUOUS
 62
     7
100
AcDbCircle
 10
176.7817141503
 20
75.4598791578
 30
0.0
 40
0.0200000000000016
100
AcDbArc
 50
168.6754616049
 51
197.4456281393
  0
SPLINE
  5
1EF
330
65
100
AcDbEntity
  8
スクリベット5102_10031
  6
CONTINUOUS
 62
     7
100
AcDbSpline
210
0.0
220
0.0
230
1.0
 70
     8
 71
     3
 72
    13
 73
     9
 74
     0
 42
0.0000001930314846
 43
0.0000000001
 40
0.3205199328253062
 40
0.3205199328253062
 40
0.3205199328253062
 40
0.3205199328253062
 40
0.3703634832798867
 40
0.454132240717641
 40
0.5845043995183734
 40
0.7543250588969533
 40
0.9429231006773573
 40
1.0
 40
1.0
 40
1.0
 40
1.0
 10
176.7630232784223
 20
75.45816138846371
 30
0.0
 10
176.7630231795914
 20
75.45816245821035
 30
0.0
 10
176.7630165175589
 20
75.45773266320633
 30
0.0
 10
176.7628611929268
 20
75.45541546207508
 30
0.0
 10
176.7623027314346
 20
75.44996145326397
 30
0.0
 10
176.7610720986194
 20
75.44044511324887
 30
0.0
 10
176.7596010361636
 20
75.43033705822798
 30
0.0
 10
176.7586736171776
 20
75.42477888192826
 30
0.0
 10
176.7584229980018
 20
75.4232802001767
 30
0.0
  0
LINE
  5
1F0
330
65
100
AcDbEntity
  8
スクリベット5102_10031
  6
CONTINUOUS
 62
     7
100
AcDbLine
 10
176.7627478598
 20
75.2969150406
 30
0.0
 11
176.7627176919
 21
75.2961766605
 31
0.0
  0
SPLINE
  5
1F1
330
65
100
AcDbEntity
  8
スクリベット5102_10031
  6
CONTINUOUS
 62
     7
100
AcDbSpline
210
0.0
220
0.0
230
1.0
 70
     8
 71
     3
 72
    12
 73
     8
 74
     0
 42
0.0000002187048574
 43
0.0000000001
 40
0.0
 40
0.0
 40
0.0
 40
0.0
 40
0.0679665707570952
 40
0.2682418097138468
 40
0.4264812101673667
 40
0.5395258693470788
 40
0.6159711598152697
 40
0.6159711598152697
 40
0.6159711598152697
 40
0.6159711598152697
 10
176.7627974880712
 20
75.19565280016946
 30
0.0
 10
176.7628790411637
 20
75.19404972126179
 30
0.0
 10
176.7631492104362
 20
75.18860404022324
 30
0.0
 10
176.7629480857877
 20
75.17960422865382
 30
0.0
 10
176.7623554418655
 20
75.17202717850425
 30
0.0
 10
176.7617394391027
 20
75.16831402538037
 30
0.0
 10
176.7615320593778
 20
75.16760717118329
 30
0.0
 10
176.7615330382691
 20
75.16761121686967
 30
0.0
  0
SPLINE
  5
1F2
330
65
100
AcDbEntity
  8
スクリベット5102_10031
  6
CONTINUOUS
 62
     7
100
AcDbSpline
210
0.0
220
0.0
230
1.0
 70
     8
 71
     3
 72
    14
 73
    10
 74
     0
 42
0.0000001729437714
 43
0.0000000001
 40
0.1977173442530998
 40
0.1977173442530998
 40
0.1977173442530998
 40
0.1977173442530998
 40
0.2354179061599881
 40
0.310024638165728
 40
0.3820285317892825
 40
0.4672288552513492
 40
0.6676157313613793
 40
0.8663057206503022
 40
1.0
 40
1.0
 40
1.0
 40
1.0
 10
176.7557438431727
 20
75.16999541099142
 30
0.0
 10
176.7551922439052
 20
75.16938053547696
 30
0.0
 10
176.7536727319061
 20
75.16747632083825
 30
0.0
 10
176.7518182264532
 20
75.16401379422987
 30
0.0
 10
176.7505496001452
 20
75.15986536818689
 30
0.0
 10
176.7496947397353
 20
75.15442826063166
 30
0.0
 10
176.7494995913761
 20
75.14690612359927
 30
0.0
 10
176.7500030975612
 20
75.13559066940832
 30
0.0
 10
176.750759998025
 20
75.12847323525807
 30
0.0
 10
176.7511222535595
 20
75.12514404067332
 30
0.0
  0
SPLINE
  5
1F3
330
65
100
AcDbEntity
  8
スクリベット5102_10031
  6
CONTINUOUS
 62
     7
100
AcDbSpline
210
0.0
220
0.0
230
1.0
 70
     8
 71
     3
 72
    12
 73
     8
 74
     0
 42
0.0000002016571955
 43
0.0000000001
 40
0.0
 40
0.0
 40
0.0
 40
0.0
 40
0.088890824910623
 40
0.2895392926701404
 40
0.4875830158497968
 40
0.6098688925136104
 40
0.6763067360665787
 40
0.6763067360665787
 40
0.6763067360665787
 40
0.6763067360665787
 10
176.7586909162054
 20
75.06867562056178
 30
0.0
 10
176.7590628280654
 20
75.0663963544723
 30
0.0
 10
176.7601018415281
 20
75.06000543049518
 30
0.0
 10
176.7616485160192
 20
75.04901323627904
 30
0.0
 10
176.7626922628214
 20
75.0402033887911
 30
0.0
 10
176.763008037929
 20
75.03624529431173
 30
0.0
 10
176.7630229608705
 20
75.03544733084371
 30
0.0
 10
176.7630233142101
 20
75.03545982066791
 30
0.0
  0
ARC
  5
1F4
330
65
100
AcDbEntity
  8
スクリベット5102_10031
  6
CONTINUOUS
 62
     7
100
AcDbCircle
 10
176.7817141503
 20
75.0337647213
 30
0.0
 40
0.0199999999999984
100
AcDbArc
 50
174.8175224394
 51
191.3245383951
  0
ARC
  5
1F5
330
65
100
AcDbEntity
  8
スクリベット5102_10031
  6
CONTINUOUS
 62
     7
100
AcDbCircle
 10
177.8455899052
 20
75.2468219396
 30
0.0
 40
1.104999999999999
100
AcDbArc
 50
153.0965319639
 51
168.6754616049
  0
ARC
  5
1F6
330
65
100
AcDbEntity
  8
スクリベット5102_10031
  6
CONTINUOUS
 62
     7
100
AcDbCircle
 10
177.8455899052
 20
75.2468219396
 30
0.0
 40
1.104999999999999
100
AcDbArc
 50
191.3245383951
 51
206.9034680361
  0
LINE
  5
1F7
330
65
100
AcDbEntity
  8
スクリベット5102_10031
  6
CONTINUOUS
 62
     7
100
AcDbLine
 10
176.8601838975
 20
74.7468219396
 30
0.0
 11
176.8653220846
 21
74.7468219396
 31
0.0
  0
LINE
  5
1F8
330
65
100
AcDbEntity
  8
スクリベット5102_10031
  6
CONTINUOUS
 62
     7
100
AcDbLine
 10
176.8653220846
 20
75.7468219396
 30
0.0
 11
176.8601838975
 21
75.7468219396
 31
0.0
  0
LINE
  5
1F9
330
65
100
AcDbEntity
  8
スクリベット5102_10031
  6
CONTINUOUS
 62
     7
100
AcDbLine
 10
98.3505899052
 20
141.0803289816
 30
0.0
 11
98.3505899052
 21
139.6803289816
 31
0.0
  0
ELLIPSE
  5
1FA
330
65
100
AcDbEntity
  8
スクリベット5102_10031
  6
CONTINUOUS
 62
     7
100
AcDbEllipse
 10
97.5129247661
 20
140.3803289816
 30
0.0
 11
2.186700820416832E-9
 21
1.100481473338988
 31
0.0
210
0.0
220
0.0
230
1.0
 40
0.9848077531
 41
4.823205775022206
 42
4.874362218140311
  0
ARC
  5
1FB
330
65
100
AcDbEntity
  8
スクリベット5102_10031
  6
CONTINUOUS
 62
     7
100
AcDbCircle
 10
97.457363472
 20
140.3803289816
 30
0.0
 40
1.121712817376536
100
AcDbArc
 50
357.4774082831
 51
2.5225917169
  0
SPLINE
  5
1FC
330
65
100
AcDbEntity
  8
スクリベット5102_10031
  6
CONTINUOUS
 62
     7
100
AcDbSpline
210
0.0
220
0.0
230
1.0
 70
     8
 71
     3
 72
    10
 73
     6
 74
     0
 42
0.0000002344868897
 43
0.0000000001
 40
0.0
 40
0.0
 40
0.0
 40
0.0
 40
0.5
 40
0.5
 40
1.0
 40
1.0
 40
1.0
 40
1.0
 10
98.57798928775519
 20
140.3309586893299
 30
0.0
 10
98.57752328027344
 20
140.3203810729132
 30
0.0
 10
98.57773622508194
 20
140.3099955665768
 30
0.0
 10
98.57938854780527
 20
140.2949317919253
 30
0.0
 10
98.58082013116143
 20
140.2903410996066
 30
0.0
 10
98.58250207175861
 20
140.2900445280994
 30
0.0
  0
SPLINE
  5
1FD
330
65
100
AcDbEntity
  8
スクリベット5102_10031
  6
CONTINUOUS
 62
     7
100
AcDbSpline
210
0.0
220
0.0
230
1.0
 70
     8
 71
     3
 72
    10
 73
     6
 74
     0
 42
0.0000003235086369
 43
0.0000000001
 40
0.0
 40
0.0
 40
0.0
 40
0.0
 40
0.4999999999999996
 40
0.4999999999999996
 40
1.0
 40
1.0
 40
1.0
 40
1.0
 10
98.5900397616159
 20
140.2586266032658
 30
0.0
 10
98.59090225240365
 20
140.2664973249142
 30
0.0
 10
98.59139146455189
 20
140.2741933414229
 30
0.0
 10
98.59139060743213
 20
140.2852590428461
 30
0.0
 10
98.59090224011702
 20
140.2885633517753
 30
0.0
 10
98.5900397616159
 20
140.2887154300053
 30
0.0
  0
ELLIPSE
  5
1FE
330
65
100
AcDbEntity
  8
スクリベット5102_10031
  6
CONTINUOUS
 62
     7
100
AcDbEllipse
 10
97.5129247661
 20
140.3803289817
 30
0.0
 11
1.876693245250749E-9
 21
-1.100481473347204
 31
0.0
210
0.0
220
0.0
230
1.0
 40
0.9848077532
 41
1.408823089308156
 42
1.459979532425758
  0
ARC
  5
1FF
330
65
100
AcDbEntity
  8
スクリベット5102_10031
  6
CONTINUOUS
 62
     7
100
AcDbCircle
 10
98.7951251592
 20
140.1585372922
 30
0.0
 40
0.2171934041126255
100
AcDbArc
 50
168.2252423993
 51
178.6811927476
  0
ELLIPSE
  5
200
330
65
100
AcDbEntity
  8
スクリベット5102_10031
  6
CONTINUOUS
 62
     7
100
AcDbEllipse
 10
98.5702307144
 20
140.2903735938
 30
0.0
 11
0.00347296355289739
 21
0.01969615506032252
 31
0.0
210
0.0
220
0.0
230
1.0
 40
0.9938661003
 41
4.802853940081288
 42
6.042107869990835
  0
LINE
  5
201
330
65
100
AcDbEntity
  8
スクリベット5102_10031
  6
CONTINUOUS
 62
     7
100
AcDbLine
 10
98.4758577257
 20
140.8903289816
 30
0.0
 11
98.4758577257
 21
139.8703289816
 31
0.0
  0
LINE
  5
202
330
65
100
AcDbEntity
  8
スクリベット5102_10031
  6
CONTINUOUS
 62
     7
100
AcDbLine
 10
98.4809959129
 20
140.8803289816
 30
0.0
 11
98.4809959129
 21
139.8803289816
 31
0.0
  0
ARC
  5
203
330
65
100
AcDbEntity
  8
スクリベット5102_10031
  6
CONTINUOUS
 62
     7
100
AcDbCircle
 10
97.4955899052
 20
140.3803289816
 30
0.0
 40
1.105000000000002
100
AcDbArc
 50
27.4864262504
 51
39.3076481161
  0
ARC
  5
204
330
65
100
AcDbEntity
  8
スクリベット5102_10031
  6
CONTINUOUS
 62
     7
100
AcDbCircle
 10
97.4955899052
 20
140.3803289816
 30
0.0
 40
1.105000000000001
100
AcDbArc
 50
320.6923518839
 51
332.5135737496
  0
LINE
  5
205
330
65
100
AcDbEntity
  8
スクリベット5102_10031
  6
CONTINUOUS
 62
     7
100
AcDbLine
 10
98.3005899052
 20
139.6803289816
 30
0.0
 11
98.3505899052
 21
139.6803289816
 31
0.0
  0
LINE
  5
206
330
65
100
AcDbEntity
  8
スクリベット5102_10031
  6
CONTINUOUS
 62
     7
100
AcDbLine
 10
98.3505899052
 20
141.0803289816
 30
0.0
 11
98.3005899052
 21
141.0803289816
 31
0.0
  0
ARC
  5
207
330
65
100
AcDbEntity
  8
スクリベット5102_10031
  6
CONTINUOUS
 62
     7
100
AcDbCircle
 10
98.55946566
 20
140.5933861999
 30
0.0
 40
0.0200000000000011
100
AcDbArc
 50
354.8175224393
 51
11.3245383952
  0
SPLINE
  5
208
330
65
100
AcDbEntity
  8
スクリベット5102_10031
  6
CONTINUOUS
 62
     7
100
AcDbSpline
210
0.0
220
0.0
230
1.0
 70
     8
 71
     3
 72
    12
 73
     8
 74
     0
 42
0.0000002020104314
 43
0.0000000001
 40
0.0
 40
0.0
 40
0.0
 40
0.0
 40
0.0890465567410054
 40
0.2900465495672467
 40
0.4884372344444092
 40
0.6109373492307701
 40
0.6774915954756293
 40
0.6774915954756293
 40
0.6774915954756293
 40
0.6774915954756293
 10
98.58248889415012
 20
140.5584753006605
 30
0.0
 10
98.5821169822901
 20
140.5607545667499
 30
0.0
 10
98.58107796877336
 20
140.5671454908388
 30
0.0
 10
98.57953129478464
 20
140.5781376840177
 30
0.0
 10
98.57848754619205
 20
140.5869475352007
 30
0.0
 10
98.57817177481093
 20
140.5909056220513
 30
0.0
 10
98.57815684671853
 20
140.5917035961468
 30
0.0
 10
98.57815649530771
 20
140.5916911022789
 30
0.0
  0
SPLINE
  5
209
330
65
100
AcDbEntity
  8
スクリベット5102_10031
  6
CONTINUOUS
 62
     7
100
AcDbSpline
210
0.0
220
0.0
230
1.0
 70
     8
 71
     3
 72
    15
 73
    11
 74
     0
 42
0.0000001708132453
 43
0.0000000001
 40
0.1238161199987445
 40
0.1238161199987445
 40
0.1238161199987445
 40
0.1238161199987445
 40
0.1518167204981478
 40
0.2339956019907369
 40
0.3087384674604731
 40
0.3808737451994093
 40
0.4662295320483456
 40
0.6669820502227393
 40
0.8660345853019049
 40
1.0
 40
1.0
 40
1.0
 40
1.0
 10
98.58182599228672
 20
140.4539044533297
 30
0.0
 10
98.58234304321728
 20
140.4542784035646
 30
0.0
 10
98.58431076730082
 20
140.4558467752464
 30
0.0
 10
98.58706110953335
 20
140.4588414020185
 30
0.0
 10
98.58936156971818
 20
140.4631372316824
 30
0.0
 10
98.59063021467566
 20
140.4672855204875
 30
0.0
 10
98.59148506694872
 20
140.4727226845363
 30
0.0
 10
98.5916802243022
 20
140.4802447885595
 30
0.0
 10
98.59117667401482
 20
140.4915608313857
 30
0.0
 10
98.59041970714951
 20
140.4986788457972
 30
0.0
 10
98.59005737421822
 20
140.5020087165458
 30
0.0
  0
SPLINE
  5
20A
330
65
100
AcDbEntity
  8
スクリベット5102_10031
  6
CONTINUOUS
 62
     7
100
AcDbSpline
210
0.0
220
0.0
230
1.0
 70
     8
 71
     3
 72
    12
 73
     8
 74
     0
 42
0.0000002187048574
 43
0.0000000001
 40
0.0
 40
0.0
 40
0.0
 40
0.0
 40
0.0679665707566413
 40
0.2682418097134417
 40
0.4264812101668264
 40
0.5395258693465728
 40
0.6159711598150336
 40
0.6159711598150336
 40
0.6159711598150336
 40
0.6159711598150336
 10
98.57838232228433
 20
140.4314981210528
 30
0.0
 10
98.57830076919184
 20
140.4331011999605
 30
0.0
 10
98.57803059991937
 20
140.438546880999
 30
0.0
 10
98.57823172456773
 20
140.4475466925684
 30
0.0
 10
98.5788243684901
 20
140.455123742718
 30
0.0
 10
98.5794403712528
 20
140.4588368958419
 30
0.0
 10
98.57964775097774
 20
140.4595437500389
 30
0.0
 10
98.57964677208642
 20
140.4595397043526
 30
0.0
  0
LINE
  5
20B
330
65
100
AcDbEntity
  8
スクリベット5102_10031
  6
CONTINUOUS
 62
     7
100
AcDbLine
 10
98.5784319506
 20
140.3302358806
 30
0.0
 11
98.578462114
 21
140.3309741517
 31
0.0
  0
ARC
  5
20C
330
65
100
AcDbEntity
  8
スクリベット5102_10031
  6
CONTINUOUS
 62
     7
100
AcDbCircle
 10
98.55946566
 20
140.1672717634
 30
0.0
 40
0.0200000000000021
100
AcDbArc
 50
348.6754616048
 51
16.9671789399
  0
ARC
  5
20D
330
65
100
AcDbEntity
  8
スクリベット5102_10031
  6
CONTINUOUS
 62
     7
100
AcDbCircle
 10
97.4955899052
 20
140.3803289816
 30
0.0
 40
1.104999999999999
100
AcDbArc
 50
11.3245383951
 51
26.9034680361
  0
ARC
  5
20E
330
65
100
AcDbEntity
  8
スクリベット5102_10031
  6
CONTINUOUS
 62
     7
100
AcDbCircle
 10
97.4955899052
 20
140.3803289816
 30
0.0
 40
1.104999999999999
100
AcDbArc
 50
333.0965319639
 51
348.6754616049
  0
LINE
  5
20F
330
65
100
AcDbEntity
  8
スクリベット5102_10031
  6
CONTINUOUS
 62
     7
100
AcDbLine
 10
98.4809959129
 20
140.8803289816
 30
0.0
 11
98.4758577257
 21
140.8803289816
 31
0.0
  0
LINE
  5
210
330
65
100
AcDbEntity
  8
スクリベット5102_10031
  6
CONTINUOUS
 62
     7
100
AcDbLine
 10
98.4758577257
 20
139.8803289816
 30
0.0
 11
98.4809959129
 21
139.8803289816
 31
0.0
  0
LINE
  5
211
330
65
100
AcDbEntity
  8
スクリベット5102_10031
  6
CONTINUOUS
 62
     7
100
AcDbLine
 10
176.9905899052
 20
139.6803289816
 30
0.0
 11
176.9905899052
 21
141.0803289816
 31
0.0
  0
ELLIPSE
  5
212
330
65
100
AcDbEntity
  8
スクリベット5102_10031
  6
CONTINUOUS
 62
     7
100
AcDbEllipse
 10
177.8282550437
 20
140.3803289817
 30
0.0
 11
2.006200761073273E-9
 21
1.100481473051462
 31
0.0
210
0.0
220
0.0
230
1.0
 40
0.9848077529
 41
1.408823092818945
 42
1.459979535949686
  0
SPLINE
  5
213
330
65
100
AcDbEntity
  8
スクリベット5102_10031
  6
CONTINUOUS
 62
     7
100
AcDbSpline
210
0.0
220
0.0
230
1.0
 70
     8
 71
     3
 72
    10
 73
     6
 74
     0
 42
0.0000003235086369
 43
0.0000000001
 40
0.0
 40
0.0
 40
0.0
 40
0.0
 40
0.4999999999999998
 40
0.4999999999999998
 40
1.0
 40
1.0
 40
1.0
 40
1.0
 10
176.7511400487396
 20
140.502031360002
 30
0.0
 10
176.7502775579519
 20
140.4941606383537
 30
0.0
 10
176.7497883458036
 20
140.486464621845
 30
0.0
 10
176.7497892029234
 20
140.4753989204217
 30
0.0
 10
176.7502775702385
 20
140.4720946114925
 30
0.0
 10
176.7511400487396
 20
140.4719425332625
 30
0.0
  0
SPLINE
  5
214
330
65
100
AcDbEntity
  8
スクリベット5102_10031
  6
CONTINUOUS
 62
     7
100
AcDbSpline
210
0.0
220
0.0
230
1.0
 70
     8
 71
     3
 72
    10
 73
     6
 74
     0
 42
0.0000002344868897
 43
0.0000000001
 40
0.0
 40
0.0
 40
0.0
 40
0.0
 40
0.5
 40
0.5
 40
1.0
 40
1.0
 40
1.0
 40
1.0
 10
176.7631905226003
 20
140.4296992739379
 30
0.0
 10
176.763656530082
 20
140.4402768903546
 30
0.0
 10
176.7634435852736
 20
140.450662396691
 30
0.0
 10
176.7617912625502
 20
140.4657261713425
 30
0.0
 10
176.7603596791941
 20
140.4703168636612
 30
0.0
 10
176.7586777385969
 20
140.4706134351685
 30
0.0
  0
ARC
  5
215
330
65
100
AcDbEntity
  8
スクリベット5102_10031
  6
CONTINUOUS
 62
     7
100
AcDbCircle
 10
177.8838163383
 20
140.3803289816
 30
0.0
 40
1.121712817376031
100
AcDbArc
 50
177.4774082831
 51
182.5225917169
  0
ELLIPSE
  5
216
330
65
100
AcDbEntity
  8
スクリベット5102_10031
  6
CONTINUOUS
 62
     7
100
AcDbEllipse
 10
177.8282550447
 20
140.3803289817
 30
0.0
 11
-2.928401965363037E-9
 21
-1.100481473563142
 31
0.0
210
0.0
220
0.0
230
1.0
 40
0.9848077533
 41
4.823205775718735
 42
4.874362218826272
  0
ELLIPSE
  5
217
330
65
100
AcDbEntity
  8
スクリベット5102_10031
  6
CONTINUOUS
 62
     7
100
AcDbEllipse
 10
176.7709490959
 20
140.4702843694
 30
0.0
 11
0.003472963554790321
 21
0.01969615506000056
 31
0.0
210
0.0
220
0.0
230
1.0
 40
0.9938661003
 41
1.661261286591198
 42
2.908109647474273
  0
LINE
  5
218
330
65
100
AcDbEntity
  8
スクリベット5102_10031
  6
CONTINUOUS
 62
     7
100
AcDbLine
 10
176.8653220846
 20
139.8703289816
 30
0.0
 11
176.8653220846
 21
140.8903289816
 31
0.0
  0
LINE
  5
219
330
65
100
AcDbEntity
  8
スクリベット5102_10031
  6
CONTINUOUS
 62
     7
100
AcDbLine
 10
176.8601838975
 20
139.8803289816
 30
0.0
 11
176.8601838975
 21
140.8803289816
 31
0.0
  0
ARC
  5
21A
330
65
100
AcDbEntity
  8
スクリベット5102_10031
  6
CONTINUOUS
 62
     7
100
AcDbCircle
 10
177.8455899052
 20
140.3803289816
 30
0.0
 40
1.105000000000001
100
AcDbArc
 50
140.6923518839
 51
152.5135737496
  0
ARC
  5
21B
330
65
100
AcDbEntity
  8
スクリベット5102_10031
  6
CONTINUOUS
 62
     7
100
AcDbCircle
 10
177.8455899052
 20
140.3803289816
 30
0.0
 40
1.105000000000002
100
AcDbArc
 50
207.4864262504
 51
219.3076481161
  0
LINE
  5
21C
330
65
100
AcDbEntity
  8
スクリベット5102_10031
  6
CONTINUOUS
 62
     7
100
AcDbLine
 10
177.0405899052
 20
141.0803289816
 30
0.0
 11
176.9905899052
 21
141.0803289816
 31
0.0
  0
LINE
  5
21D
330
65
100
AcDbEntity
  8
スクリベット5102_10031
  6
CONTINUOUS
 62
     7
100
AcDbLine
 10
176.9905899052
 20
139.6803289816
 30
0.0
 11
177.0405899052
 21
139.6803289816
 31
0.0
  0
ARC
  5
21E
330
65
100
AcDbEntity
  8
スクリベット5102_10031
  6
CONTINUOUS
 62
     7
100
AcDbCircle
 10
176.7817141503
 20
140.5933861999
 30
0.0
 40
0.02
100
AcDbArc
 50
168.6754616049
 51
196.9070906111
  0
SPLINE
  5
21F
330
65
100
AcDbEntity
  8
スクリベット5102_10031
  6
CONTINUOUS
 62
     7
100
AcDbSpline
210
0.0
220
0.0
230
1.0
 70
     8
 71
     3
 72
    13
 73
     9
 74
     0
 42
0.0000001930314846
 43
0.0000000001
 40
0.3205199328252292
 40
0.3205199328252292
 40
0.3205199328252292
 40
0.3205199328252292
 40
0.3703634832798818
 40
0.4541322407176402
 40
0.5845043995183898
 40
0.7543250588969159
 40
0.9429231006773634
 40
1.0
 40
1.0
 40
1.0
 40
1.0
 10
176.7630232784223
 20
140.5916684305093
 30
0.0
 10
176.7630231795914
 20
140.591669500256
 30
0.0
 10
176.7630165175589
 20
140.591239705252
 30
0.0
 10
176.7628611929269
 20
140.5889225041207
 30
0.0
 10
176.7623027314346
 20
140.5834684953095
 30
0.0
 10
176.7610720986194
 20
140.5739521552945
 30
0.0
 10
176.7596010361636
 20
140.5638441002736
 30
0.0
 10
176.7586736171776
 20
140.5582859239738
 30
0.0
 10
176.7584229980018
 20
140.5567872422223
 30
0.0
  0
LINE
  5
220
330
65
100
AcDbEntity
  8
スクリベット5102_10031
  6
CONTINUOUS
 62
     7
100
AcDbLine
 10
176.7627478598
 20
140.4304220827
 30
0.0
 11
176.7627176919
 21
140.4296837025
 31
0.0
  0
SPLINE
  5
221
330
65
100
AcDbEntity
  8
スクリベット5102_10031
  6
CONTINUOUS
 62
     7
100
AcDbSpline
210
0.0
220
0.0
230
1.0
 70
     8
 71
     3
 72
    12
 73
     8
 74
     0
 42
0.0000002187048574
 43
0.0000000001
 40
0.0
 40
0.0
 40
0.0
 40
0.0
 40
0.0679665707571391
 40
0.268241809713789
 40
0.4264812101673738
 40
0.5395258693470091
 40
0.6159711598154485
 40
0.6159711598154485
 40
0.6159711598154485
 40
0.6159711598154485
 10
176.7627974880712
 20
140.3291598422151
 30
0.0
 10
176.7628790411637
 20
140.3275567633073
 30
0.0
 10
176.7631492104362
 20
140.3221110822688
 30
0.0
 10
176.7629480857877
 20
140.3131112706995
 30
0.0
 10
176.7623554418654
 20
140.3055342205499
 30
0.0
 10
176.7617394391027
 20
140.3018210674259
 30
0.0
 10
176.7615320593778
 20
140.3011142132289
 30
0.0
 10
176.7615330382691
 20
140.3011182589153
 30
0.0
  0
SPLINE
  5
222
330
65
100
AcDbEntity
  8
スクリベット5102_10031
  6
CONTINUOUS
 62
     7
100
AcDbSpline
210
0.0
220
0.0
230
1.0
 70
     8
 71
     3
 72
    14
 73
    10
 74
     0
 42
0.0000001729437714
 43
0.0000000001
 40
0.1977173442535412
 40
0.1977173442535412
 40
0.1977173442535412
 40
0.1977173442535412
 40
0.2354179061600117
 40
0.3100246381656883
 40
0.3820285317892465
 40
0.4672288552513882
 40
0.667615731361399
 40
0.8663057206503114
 40
1.0
 40
1.0
 40
1.0
 40
1.0
 10
176.7557438431727
 20
140.3035024530371
 30
0.0
 10
176.7551922439052
 20
140.3028875775226
 30
0.0
 10
176.7536727319061
 20
140.3009833628838
 30
0.0
 10
176.7518182264533
 20
140.2975208362754
 30
0.0
 10
176.7505496001452
 20
140.2933724102325
 30
0.0
 10
176.7496947397352
 20
140.2879353026773
 30
0.0
 10
176.7494995913761
 20
140.2804131656449
 30
0.0
 10
176.7500030975612
 20
140.2690977114539
 30
0.0
 10
176.750759998025
 20
140.2619802773036
 30
0.0
 10
176.7511222535595
 20
140.2586510827189
 30
0.0
  0
SPLINE
  5
223
330
65
100
AcDbEntity
  8
スクリベット5102_10031
  6
CONTINUOUS
 62
     7
100
AcDbSpline
210
0.0
220
0.0
230
1.0
 70
     8
 71
     3
 72
    12
 73
     8
 74
     0
 42
0.0000002016571955
 43
0.0000000001
 40
0.0
 40
0.0
 40
0.0
 40
0.0
 40
0.0888908249105819
 40
0.2895392926701217
 40
0.4875830158498202
 40
0.6098688925136515
 40
0.6763067360666497
 40
0.6763067360666497
 40
0.6763067360666497
 40
0.6763067360666497
 10
176.7586909162054
 20
140.2021826626074
 30
0.0
 10
176.7590628280654
 20
140.1999033965179
 30
0.0
 10
176.7601018415281
 20
140.1935124725408
 30
0.0
 10
176.7616485160192
 20
140.1825202783245
 30
0.0
 10
176.7626922628215
 20
140.1737104308367
 30
0.0
 10
176.763008037929
 20
140.1697523363573
 30
0.0
 10
176.7630229608705
 20
140.1689543728893
 30
0.0
 10
176.76302331421
 20
140.1689668627135
 30
0.0
  0
ARC
  5
224
330
65
100
AcDbEntity
  8
スクリベット5102_10031
  6
CONTINUOUS
 62
     7
100
AcDbCircle
 10
176.7817141503
 20
140.1672717634
 30
0.0
 40
0.0200000000000011
100
AcDbArc
 50
174.8175224394
 51
191.3245383951
  0
ARC
  5
225
330
65
100
AcDbEntity
  8
スクリベット5102_10031
  6
CONTINUOUS
 62
     7
100
AcDbCircle
 10
177.8455899052
 20
140.3803289816
 30
0.0
 40
1.104999999999999
100
AcDbArc
 50
153.0965319639
 51
168.6754616049
  0
ARC
  5
226
330
65
100
AcDbEntity
  8
スクリベット5102_10031
  6
CONTINUOUS
 62
     7
100
AcDbCircle
 10
177.8455899052
 20
140.3803289816
 30
0.0
 40
1.104999999999999
100
AcDbArc
 50
191.3245383951
 51
206.9034680361
  0
LINE
  5
227
330
65
100
AcDbEntity
  8
スクリベット5102_10031
  6
CONTINUOUS
 62
     7
100
AcDbLine
 10
176.8601838975
 20
139.8803289816
 30
0.0
 11
176.8653220846
 21
139.8803289816
 31
0.0
  0
LINE
  5
228
330
65
100
AcDbEntity
  8
スクリベット5102_10031
  6
CONTINUOUS
 62
     7
100
AcDbLine
 10
176.8653220846
 20
140.8803289816
 30
0.0
 11
176.8601838975
 21
140.8803289816
 31
0.0
  0
LINE
  5
22A
330
65
100
AcDbEntity
  8
ﾐﾗｰ支柱カバー160803_ﾃ
  6
CONTINUOUS
 62
     7
100
AcDbLine
 10
177.1205899052
 20
67.8585053269
 30
0.0
 11
177.1205899052
 21
67.8597234461
 31
0.0
  0
LINE
  5
22B
330
65
100
AcDbEntity
  8
ﾐﾗｰ支柱カバー160803_ﾃ
  6
CONTINUOUS
 62
     7
100
AcDbLine
 10
177.1205899052
 20
67.8585053269
 30
0.0
 11
177.1174068063
 21
67.8585053269
 31
0.0
  0
ELLIPSE
  5
22C
330
65
100
AcDbEntity
  8
ﾐﾗｰ支柱カバー160803_ﾃ
  6
CONTINUOUS
 62
     7
100
AcDbEllipse
 10
177.1205899052
 20
67.8585053269
 30
0.0
 11
0.003183098861797573
 21
0.0
 31
0.0
210
0.0
220
0.0
230
1.0
 40
0.3826834323
 41
1.570796326794897
 42
3.141592653589793
  0
LINE
  5
22D
330
65
100
AcDbEntity
  8
ﾐﾗｰ支柱カバー160803_ﾃ
  6
CONTINUOUS
 62
     7
100
AcDbLine
 10
177.1174068063
 20
67.8585053269
 30
0.0
 11
177.0405899052
 21
67.8585053269
 31
0.0
  0
ELLIPSE
  5
22E
330
65
100
AcDbEntity
  8
ﾐﾗｰ支柱カバー160803_ﾃ
  6
CONTINUOUS
 62
     7
100
AcDbEllipse
 10
177.1205899052
 20
67.8585053269
 30
0.0
 11
0.07999999999994678
 21
0.0
 31
0.0
210
0.0
220
0.0
230
1.0
 40
0.3826834324
 41
1.570796326794897
 42
3.141592653589793
  0
LINE
  5
22F
330
65
100
AcDbEntity
  8
ﾐﾗｰ支柱カバー160803_ﾃ
  6
CONTINUOUS
 62
     7
100
AcDbLine
 10
177.0405899052
 20
67.8585053269
 30
0.0
 11
177.0405899052
 21
141.0803289816
 31
0.0
  0
ELLIPSE
  5
230
330
65
100
AcDbEntity
  8
ﾐﾗｰ支柱カバー160803_ﾃ
  6
CONTINUOUS
 62
     7
100
AcDbEllipse
 10
177.1205899052
 20
67.8585053269
 30
0.0
 11
0.003183098861947454
 21
8.326672684688676E-15
 31
0.0
210
0.0
220
0.0
230
1.0
 40
0.3826834324
 41
0.0000023025548922
 42
1.570796326793896
  0
LINE
  5
231
330
65
100
AcDbEntity
  8
ﾐﾗｰ支柱カバー160803_ﾃ
  6
CONTINUOUS
 62
     7
100
AcDbLine
 10
177.1205899052
 20
67.8891200015
 30
0.0
 11
180.3732629172
 21
67.8891200015
 31
0.0
  0
LINE
  5
232
330
65
100
AcDbEntity
  8
ﾐﾗｰ支柱カバー160803_ﾃ
  6
CONTINUOUS
 62
     7
100
AcDbLine
 10
177.123773004
 20
67.8585053269
 30
0.0
 11
180.3732629172
 21
67.8585053269
 31
0.0
  0
ELLIPSE
  5
233
330
65
100
AcDbEntity
  8
ﾐﾗｰ支柱カバー160803_ﾃ
  6
CONTINUOUS
 62
     7
100
AcDbEllipse
 10
182.1605899052
 20
67.8585053269
 30
0.0
 11
0.0201149604526274
 21
0.00192566949496209
 31
0.0
210
0.0
220
0.0
230
0.9999999999999999
 40
0.0254022729
 41
0.2593675517849233
 42
1.830163878564722
  0
LINE
  5
234
330
65
100
AcDbEntity
  8
ﾐﾗｰ支柱カバー160803_ﾃ
  6
CONTINUOUS
 62
     7
100
AcDbLine
 10
181.2619146774
 20
67.8585053269
 30
0.0
 11
181.3391887435
 21
67.8664289878
 31
0.0
  0
LINE
  5
235
330
65
100
AcDbEntity
  8
ﾐﾗｰ支柱カバー160803_ﾃ
  6
CONTINUOUS
 62
     7
100
AcDbLine
 10
181.3391887435
 20
67.8664289878
 30
0.0
 11
182.2378639713
 21
67.8664289878
 31
0.0
  0
LINE
  5
236
330
65
100
AcDbEntity
  8
ﾐﾗｰ支柱カバー160803_ﾃ
  6
CONTINUOUS
 62
     7
100
AcDbLine
 10
181.2619146774
 20
67.8585053269
 30
0.0
 11
182.1553837549
 21
67.8585053269
 31
0.0
  0
LINE
  5
237
330
65
100
AcDbEntity
  8
ﾐﾗｰ支柱カバー160803_ﾃ
  6
CONTINUOUS
 62
     7
100
AcDbLine
 10
182.1605899052
 20
67.8585053269
 30
0.0
 11
182.1807049251
 21
67.8585053269
 31
0.0
  0
LINE
  5
238
330
65
100
AcDbEntity
  8
ﾐﾗｰ支柱カバー160803_ﾃ
  6
CONTINUOUS
 62
     7
100
AcDbLine
 10
182.1807049251
 20
67.8585053269
 30
0.0
 11
182.2405899052
 21
67.8585053269
 31
0.0
  0
LINE
  5
239
330
65
100
AcDbEntity
  8
ﾐﾗｰ支柱カバー160803_ﾃ
  6
CONTINUOUS
 62
     7
100
AcDbLine
 10
182.2405899052
 20
67.8585053269
 30
0.0
 11
182.2405899052
 21
140.4707815966
 31
0.0
  0
LINE
  5
23A
330
65
100
AcDbEntity
  8
ﾐﾗｰ支柱カバー160803_ﾃ
  6
CONTINUOUS
 62
     7
100
AcDbLine
 10
182.1605899052
 20
67.8585053269
 30
0.0
 11
182.1605899052
 21
67.859020974
 31
0.0
  0
ELLIPSE
  5
23B
330
65
100
AcDbEntity
  8
ﾐﾗｰ支柱カバー160803_ﾃ
  6
CONTINUOUS
 62
     7
100
AcDbEllipse
 10
182.1605899052
 20
67.8585053269
 30
0.0
 11
0.02011501993093856
 21
2.636779683484747E-14
 31
0.0
210
0.0
220
0.0
230
1.0
 40
0.3826834324
 41
0.0
 42
0.2617993877964667
  0
LINE
  5
23C
330
65
100
AcDbEntity
  8
ﾐﾗｰ支柱カバー160803_ﾃ
  6
CONTINUOUS
 62
     7
100
AcDbLine
 10
182.1800195224
 20
67.8604976344
 30
0.0
 11
182.2378639713
 21
67.8664289878
 31
0.0
  0
ELLIPSE
  5
23D
330
65
100
AcDbEntity
  8
ﾐﾗｰ支柱カバー160803_ﾃ
  6
CONTINUOUS
 62
     7
100
AcDbEllipse
 10
182.1605899052
 20
67.8585053269
 30
0.0
 11
0.07999999999975806
 21
-4.857225732735060E-14
 31
0.0
210
0.0
220
0.0
230
1.0
 40
0.3826834324
 41
0.0
 42
0.2617993877995792
  0
ARC
  5
23E
330
65
100
AcDbEntity
  8
ﾐﾗｰ支柱カバー160803_ﾃ
  6
CONTINUOUS
 62
     7
100
AcDbCircle
 10
180.2542307801
 20
42.251657795
 30
0.0
 40
25.63773853213206
100
AcDbArc
 50
87.5745878795
 51
89.7339834177
  0
ARC
  5
23F
330
65
100
AcDbEntity
  8
ﾐﾗｰ支柱カバー160803_ﾃ
  6
CONTINUOUS
 62
     7
100
AcDbCircle
 10
180.8175887973
 20
85.3041226642
 30
0.0
 40
17.45127473189625
100
AcDbArc
 50
268.5410378659
 51
271.2343189989
  0
LINE
  5
240
330
65
100
AcDbEntity
  8
ﾐﾗｰ支柱カバー160803_ﾃ
  6
CONTINUOUS
 62
     7
100
AcDbLine
 10
182.1553837549
 20
67.8585053269
 30
0.0
 11
182.1605899052
 21
67.8585053269
 31
0.0
  0
ARC
  5
241
330
65
100
AcDbEntity
  8
ﾐﾗｰ支柱カバー160803_ﾃ
  6
CONTINUOUS
 62
     7
100
AcDbCircle
 10
181.8597776964
 20
63.9747004909
 30
0.0
 40
3.937784056984925
100
AcDbArc
 50
98.5304490725
 51
99.761540351
  0
LINE
  5
243
330
65
100
AcDbEntity
  8
ﾐﾗｰ転点防止金具_前_1608
  6
CONTINUOUS
 62
     7
100
AcDbLine
 10
177.2705899052
 20
67.3054441076
 30
0.0
 11
180.5705899052
 21
67.3054441076
 31
0.0
  0
LINE
  5
244
330
65
100
AcDbEntity
  8
ﾐﾗｰ転点防止金具_前_1608
  6
CONTINUOUS
 62
     7
100
AcDbLine
 10
177.2705899052
 20
67.3054441076
 30
0.0
 11
177.2705899052
 21
64.7954197129
 31
0.0
  0
LINE
  5
245
330
65
100
AcDbEntity
  8
ﾐﾗｰ転点防止金具_前_1608
  6
CONTINUOUS
 62
     7
100
AcDbLine
 10
180.5705899052
 20
67.3054441076
 30
0.0
 11
180.5705899052
 21
64.7954197129
 31
0.0
  0
LINE
  5
246
330
65
100
AcDbEntity
  8
ﾐﾗｰ転点防止金具_前_1608
  6
CONTINUOUS
 62
     7
100
AcDbLine
 10
177.2705899052
 20
64.263213213
 30
0.0
 11
177.2705899052
 21
59.6773021508
 31
0.0
  0
LINE
  5
247
330
65
100
AcDbEntity
  8
ﾐﾗｰ転点防止金具_前_1608
  6
CONTINUOUS
 62
     7
100
AcDbLine
 10
180.5705899052
 20
64.263213213
 30
0.0
 11
180.5705899052
 21
59.6773021508
 31
0.0
  0
LINE
  5
248
330
65
100
AcDbEntity
  8
ﾐﾗｰ転点防止金具_前_1608
  6
CONTINUOUS
 62
     7
100
AcDbLine
 10
177.2705899052
 20
64.263213213
 30
0.0
 11
177.2705899052
 21
64.7954197129
 31
0.0
  0
LINE
  5
249
330
65
100
AcDbEntity
  8
ﾐﾗｰ転点防止金具_前_1608
  6
CONTINUOUS
 62
     7
100
AcDbLine
 10
180.5705899052
 20
64.7954197129
 30
0.0
 11
180.5705899052
 21
64.263213213
 31
0.0
  0
LINE
  5
24A
330
65
100
AcDbEntity
  8
ﾐﾗｰ転点防止金具_前_1608
  6
CONTINUOUS
 62
     7
100
AcDbLine
 10
180.5705899052
 20
59.6773021508
 30
0.0
 11
180.5705899052
 21
59.0773021508
 31
0.0
  0
LINE
  5
24B
330
65
100
AcDbEntity
  8
ﾐﾗｰ転点防止金具_前_1608
  6
CONTINUOUS
 62
     7
100
AcDbLine
 10
177.2705899052
 20
59.6773021508
 30
0.0
 11
177.2705899052
 21
59.0773021508
 31
0.0
  0
LINE
  5
24C
330
65
100
AcDbEntity
  8
ﾐﾗｰ転点防止金具_前_1608
  6
CONTINUOUS
 62
     7
100
AcDbLine
 10
180.5705899052
 20
59.0773021508
 30
0.0
 11
179.7205899052
 21
59.0773021508
 31
0.0
  0
LINE
  5
24D
330
65
100
AcDbEntity
  8
ﾐﾗｰ転点防止金具_前_1608
  6
CONTINUOUS
 62
     7
100
AcDbLine
 10
180.5705899052
 20
67.7673838738
 30
0.0
 11
180.5705899052
 21
67.3054441076
 31
0.0
  0
LINE
  5
24E
330
65
100
AcDbEntity
  8
ﾐﾗｰ転点防止金具_前_1608
  6
CONTINUOUS
 62
     7
100
AcDbLine
 10
180.6205899052
 20
67.7673838738
 30
0.0
 11
180.5705899052
 21
67.7673838738
 31
0.0
  0
LINE
  5
24F
330
65
100
AcDbEntity
  8
ﾐﾗｰ転点防止金具_前_1608
  6
CONTINUOUS
 62
     7
100
AcDbLine
 10
180.6205899052
 20
67.5377738144
 30
0.0
 11
180.5705899052
 21
67.5377738144
 31
0.0
  0
ELLIPSE
  5
250
330
65
100
AcDbEntity
  8
ﾐﾗｰ転点防止金具_前_1608
  6
CONTINUOUS
 62
     7
100
AcDbEllipse
 10
180.6205899052
 20
67.5377738144
 30
0.0
 11
-0.6000000000000006
 21
-1.387778780781446E-15
 31
0.0
210
0.0
220
0.0
230
1.0
 40
0.3826834324
 41
3.141592653589793
 42
4.712388980384642
  0
LINE
  5
251
330
65
100
AcDbEntity
  8
ﾐﾗｰ転点防止金具_前_1608
  6
CONTINUOUS
 62
     7
100
AcDbLine
 10
181.2205899052
 20
67.5377738144
 30
0.0
 11
181.2205899052
 21
67.860211979
 31
0.0
  0
LINE
  5
252
330
65
100
AcDbEntity
  8
ﾐﾗｰ転点防止金具_前_1608
  6
CONTINUOUS
 62
     7
100
AcDbLine
 10
178.9205899052
 20
59.0773021508
 30
0.0
 11
177.2705899052
 21
59.0773021508
 31
0.0
  0
LINE
  5
253
330
65
100
AcDbEntity
  8
ﾐﾗｰ転点防止金具_前_1608
  6
CONTINUOUS
 62
     7
100
AcDbLine
 10
179.7205899052
 20
59.0773021508
 30
0.0
 11
179.7205899052
 21
59.6773021508
 31
0.0
  0
LINE
  5
254
330
65
100
AcDbEntity
  8
ﾐﾗｰ転点防止金具_前_1608
  6
CONTINUOUS
 62
     7
100
AcDbLine
 10
178.9205899052
 20
59.6773021508
 30
0.0
 11
178.9205899052
 21
59.0773021508
 31
0.0
  0
LINE
  5
255
330
65
100
AcDbEntity
  8
ﾐﾗｰ転点防止金具_前_1608
  6
CONTINUOUS
 62
     7
100
AcDbLine
 10
179.7205899052
 20
59.7773021508
 30
0.0
 11
179.7205899052
 21
59.6773021508
 31
0.0
  0
LINE
  5
256
330
65
100
AcDbEntity
  8
ﾐﾗｰ転点防止金具_前_1608
  6
CONTINUOUS
 62
     7
100
AcDbLine
 10
178.9205899052
 20
59.6773021508
 30
0.0
 11
178.9205899052
 21
59.7773021508
 31
0.0
  0
ARC
  5
257
330
65
100
AcDbEntity
  8
ﾐﾗｰ転点防止金具_前_1608
  6
CONTINUOUS
 62
     7
100
AcDbCircle
 10
179.3205899052
 20
59.7773021508
 30
0.0
 40
0.4000000000000004
100
AcDbArc
 50
0.0
 51
180.0
  0
LINE
  5
258
330
65
100
AcDbEntity
  8
ﾐﾗｰ転点防止金具_前_1608
  6
CONTINUOUS
 62
     7
100
AcDbLine
 10
179.7205899052
 20
59.6773021508
 30
0.0
 11
178.9205899052
 21
59.6773021508
 31
0.0
  0
LINE
  5
259
330
65
100
AcDbEntity
  8
ﾐﾗｰ転点防止金具_前_1608
  6
CONTINUOUS
 62
     7
100
AcDbLine
 10
179.7205899052
 20
59.0773021508
 30
0.0
 11
178.9205899052
 21
59.0773021508
 31
0.0
  0
LINE
  5
25A
330
65
100
AcDbEntity
  8
ﾐﾗｰ転点防止金具_前_1608
  6
CONTINUOUS
 62
     7
100
AcDbLine
 10
177.2705899052
 20
67.8585053269
 30
0.0
 11
177.2705899052
 21
67.3054441076
 31
0.0
  0
LINE
  5
25B
330
65
100
AcDbEntity
  8
ﾐﾗｰ転点防止金具_前_1608
  6
CONTINUOUS
 62
     7
100
AcDbLine
 10
180.6205899052
 20
66.9254803226
 30
0.0
 11
180.6205899052
 21
67.5377738144
 31
0.0
  0
LINE
  5
25C
330
65
100
AcDbEntity
  8
ﾐﾗｰ転点防止金具_前_1608
  6
CONTINUOUS
 62
     7
100
AcDbLine
 10
181.2205899052
 20
66.9254803226
 30
0.0
 11
181.2205899052
 21
67.5377738144
 31
0.0
  0
LINE
  5
25D
330
65
100
AcDbEntity
  8
ﾐﾗｰ転点防止金具_前_1608
  6
CONTINUOUS
 62
     7
100
AcDbLine
 10
180.6205899052
 20
66.9102562291
 30
0.0
 11
180.6205899052
 21
66.9254803226
 31
0.0
  0
LINE
  5
25E
330
65
100
AcDbEntity
  8
ﾐﾗｰ転点防止金具_前_1608
  6
CONTINUOUS
 62
     7
100
AcDbLine
 10
181.2205899052
 20
66.9254803226
 30
0.0
 11
181.2205899052
 21
66.9102562291
 31
0.0
  0
LINE
  5
25F
330
65
100
AcDbEntity
  8
ﾐﾗｰ転点防止金具_前_1608
  6
CONTINUOUS
 62
     7
100
AcDbLine
 10
180.6205899052
 20
66.9102562291
 30
0.0
 11
181.2205899052
 21
66.9102562291
 31
0.0
  0
LINE
  5
261
330
65
100
AcDbEntity
  8
平座金_並形__6_13_1_0
  6
CONTINUOUS
 62
     7
100
AcDbLine
 10
162.0205899052
 20
67.8085053269
 30
0.0
 11
163.3205899052
 21
67.8085053269
 31
0.0
  0
LINE
  5
262
330
65
100
AcDbEntity
  8
平座金_並形__6_13_1_0
  6
CONTINUOUS
 62
     7
100
AcDbLine
 10
163.3205899052
 20
67.8085053269
 30
0.0
 11
163.3205899052
 21
67.8585053269
 31
0.0
  0
LINE
  5
263
330
65
100
AcDbEntity
  8
平座金_並形__6_13_1_0
  6
CONTINUOUS
 62
     7
100
AcDbLine
 10
162.0205899052
 20
67.8585053269
 30
0.0
 11
162.0205899052
 21
67.8085053269
 31
0.0
  0
LINE
  5
265
330
65
100
AcDbEntity
  8
バネ座金_2号__呼び_6_6_
  6
CONTINUOUS
 62
     7
100
AcDbLine
 10
162.062642539
 20
67.6585053269
 30
0.0
 11
163.2805899052
 21
67.6585053269
 31
0.0
  0
LINE
  5
266
330
65
100
AcDbEntity
  8
バネ座金_2号__呼び_6_6_
  6
CONTINUOUS
 62
     7
100
AcDbLine
 10
162.062642539
 20
67.6585053269
 30
0.0
 11
162.062642539
 21
67.8085053269
 31
0.0
  0
LINE
  5
267
330
65
100
AcDbEntity
  8
バネ座金_2号__呼び_6_6_
  6
CONTINUOUS
 62
     7
100
AcDbLine
 10
163.2805899052
 20
67.6585053269
 30
0.0
 11
163.2805899052
 21
67.8085053269
 31
0.0
  0
LINE
  5
269
330
65
100
AcDbEntity
  8
六角穴付キャップボルト_M6_1
  6
CONTINUOUS
 62
     7
100
AcDbLine
 10
162.2455899052
 20
67.0585053269
 30
0.0
 11
163.0955899052
 21
67.0585053269
 31
0.0
  0
LINE
  5
26A
330
65
100
AcDbEntity
  8
六角穴付キャップボルト_M6_1
  6
CONTINUOUS
 62
     7
100
AcDbLine
 10
162.1705899052
 20
67.1018065971
 30
0.0
 11
163.1705899052
 21
67.1018065971
 31
0.0
  0
LINE
  5
26B
330
65
100
AcDbEntity
  8
六角穴付キャップボルト_M6_1
  6
CONTINUOUS
 62
     7
100
AcDbLine
 10
162.1705899052
 20
67.6585053269
 30
0.0
 11
162.1705899052
 21
67.1018065971
 31
0.0
  0
LINE
  5
26C
330
65
100
AcDbEntity
  8
六角穴付キャップボルト_M6_1
  6
CONTINUOUS
 62
     7
100
AcDbLine
 10
163.1705899052
 20
67.1018065971
 30
0.0
 11
163.1705899052
 21
67.6585053269
 31
0.0
  0
LINE
  5
26D
330
65
100
AcDbEntity
  8
六角穴付キャップボルト_M6_1
  6
CONTINUOUS
 62
     7
100
AcDbLine
 10
162.1705899052
 20
67.1018065971
 30
0.0
 11
162.2455899052
 21
67.0585053269
 31
0.0
  0
LINE
  5
26E
330
65
100
AcDbEntity
  8
六角穴付キャップボルト_M6_1
  6
CONTINUOUS
 62
     7
100
AcDbLine
 10
163.0955899052
 20
67.0585053269
 30
0.0
 11
163.1705899052
 21
67.1018065971
 31
0.0
  0
LINE
  5
26F
330
65
100
AcDbEntity
  8
平座金_並形__6_13_1_0
  6
CONTINUOUS
 62
     7
100
AcDbLine
 10
112.0205899052
 20
67.8085053269
 30
0.0
 11
113.3205899052
 21
67.8085053269
 31
0.0
  0
LINE
  5
270
330
65
100
AcDbEntity
  8
平座金_並形__6_13_1_0
  6
CONTINUOUS
 62
     7
100
AcDbLine
 10
113.3205899052
 20
67.8085053269
 30
0.0
 11
113.3205899052
 21
67.8585053269
 31
0.0
  0
LINE
  5
271
330
65
100
AcDbEntity
  8
平座金_並形__6_13_1_0
  6
CONTINUOUS
 62
     7
100
AcDbLine
 10
112.0205899052
 20
67.8585053269
 30
0.0
 11
112.0205899052
 21
67.8085053269
 31
0.0
  0
LINE
  5
272
330
65
100
AcDbEntity
  8
バネ座金_2号__呼び_6_6_
  6
CONTINUOUS
 62
     7
100
AcDbLine
 10
112.062642539
 20
67.6585053269
 30
0.0
 11
113.2805899052
 21
67.6585053269
 31
0.0
  0
LINE
  5
273
330
65
100
AcDbEntity
  8
バネ座金_2号__呼び_6_6_
  6
CONTINUOUS
 62
     7
100
AcDbLine
 10
112.062642539
 20
67.6585053269
 30
0.0
 11
112.062642539
 21
67.8085053269
 31
0.0
  0
LINE
  5
274
330
65
100
AcDbEntity
  8
バネ座金_2号__呼び_6_6_
  6
CONTINUOUS
 62
     7
100
AcDbLine
 10
113.2805899052
 20
67.6585053269
 30
0.0
 11
113.2805899052
 21
67.8085053269
 31
0.0
  0
LINE
  5
275
330
65
100
AcDbEntity
  8
六角穴付キャップボルト_M6_1
  6
CONTINUOUS
 62
     7
100
AcDbLine
 10
112.2455899052
 20
67.0585053269
 30
0.0
 11
113.0955899052
 21
67.0585053269
 31
0.0
  0
LINE
  5
276
330
65
100
AcDbEntity
  8
六角穴付キャップボルト_M6_1
  6
CONTINUOUS
 62
     7
100
AcDbLine
 10
112.1705899052
 20
67.1018065971
 30
0.0
 11
113.1705899052
 21
67.1018065971
 31
0.0
  0
LINE
  5
277
330
65
100
AcDbEntity
  8
六角穴付キャップボルト_M6_1
  6
CONTINUOUS
 62
     7
100
AcDbLine
 10
112.1705899052
 20
67.6585053269
 30
0.0
 11
112.1705899052
 21
67.1018065971
 31
0.0
  0
LINE
  5
278
330
65
100
AcDbEntity
  8
六角穴付キャップボルト_M6_1
  6
CONTINUOUS
 62
     7
100
AcDbLine
 10
113.1705899052
 20
67.1018065971
 30
0.0
 11
113.1705899052
 21
67.6585053269
 31
0.0
  0
LINE
  5
279
330
65
100
AcDbEntity
  8
六角穴付キャップボルト_M6_1
  6
CONTINUOUS
 62
     7
100
AcDbLine
 10
112.1705899052
 20
67.1018065971
 30
0.0
 11
112.2455899052
 21
67.0585053269
 31
0.0
  0
LINE
  5
27A
330
65
100
AcDbEntity
  8
六角穴付キャップボルト_M6_1
  6
CONTINUOUS
 62
     7
100
AcDbLine
 10
113.0955899052
 20
67.0585053269
 30
0.0
 11
113.1705899052
 21
67.1018065971
 31
0.0
  0
LINE
  5
27C
330
65
100
AcDbEntity
  8
ベースパネル160803_ﾃﾞﾌ
  6
CONTINUOUS
 62
     7
100
AcDbLine
 10
177.123722504
 20
67.8585053269
 30
0.0
 11
177.1205899052
 21
67.8585053269
 31
0.0
  0
LINE
  5
27D
330
65
100
AcDbEntity
  8
ベースパネル160803_ﾃﾞﾌ
  6
CONTINUOUS
 62
     7
100
AcDbLine
 10
176.9405899052
 20
67.8585053269
 30
0.0
 11
98.4005899052
 21
67.8585053269
 31
0.0
  0
LINE
  5
27E
330
65
100
AcDbEntity
  8
ベースパネル160803_ﾃﾞﾌ
  6
CONTINUOUS
 62
     7
100
AcDbLine
 10
98.2205899052
 20
67.8585053269
 30
0.0
 11
98.2174573063
 21
67.8585053269
 31
0.0
  0
LINE
  5
27F
330
65
100
AcDbEntity
  8
ベースパネル160803_ﾃﾞﾌ
  6
CONTINUOUS
 62
     7
100
AcDbLine
 10
176.6405899052
 20
72.5085053269
 30
0.0
 11
98.7005899052
 21
72.5085053269
 31
0.0
  0
LINE
  5
281
330
65
100
AcDbEntity
  8
転点防止金具_後_160803_
  6
CONTINUOUS
 62
     7
100
AcDbLine
 10
97.2405899052
 20
59.0085053269
 30
0.0
 11
96.5205899052
 21
59.0085053269
 31
0.0
  0
LINE
  5
282
330
65
100
AcDbEntity
  8
転点防止金具_後_160803_
  6
CONTINUOUS
 62
     7
100
AcDbLine
 10
95.5205899052
 20
59.0085053269
 30
0.0
 11
94.9405899052
 21
59.0085053269
 31
0.0
  0
LINE
  5
283
330
65
100
AcDbEntity
  8
転点防止金具_後_160803_
  6
CONTINUOUS
 62
     7
100
AcDbLine
 10
97.6205899052
 20
59.0085053269
 30
0.0
 11
97.2405899052
 21
59.0085053269
 31
0.0
  0
LINE
  5
284
330
65
100
AcDbEntity
  8
転点防止金具_後_160803_
  6
CONTINUOUS
 62
     7
100
AcDbLine
 10
94.9405899052
 20
59.0085053269
 30
0.0
 11
94.9205899052
 21
59.0085053269
 31
0.0
  0
LINE
  5
285
330
65
100
AcDbEntity
  8
アジャスター_大昌H150_12
  6
CONTINUOUS
 62
     7
100
AcDbLine
 10
94.9205899052
 20
58.0285053269
 30
0.0
 11
95.5205899052
 21
58.0285053269
 31
0.0
  0
LINE
  5
286
330
65
100
AcDbEntity
  8
アジャスター_大昌H150_12
  6
CONTINUOUS
 62
     7
100
AcDbLine
 10
96.5205899052
 20
58.0285053269
 30
0.0
 11
97.6205899052
 21
58.0285053269
 31
0.0
  0
LINE
  5
287
330
65
100
AcDbEntity
  8
アジャスター_大昌H150_12
  6
CONTINUOUS
 62
     7
100
AcDbLine
 10
177.7205899052
 20
58.0285053269
 30
0.0
 11
178.8205899052
 21
58.0285053269
 31
0.0
  0
LINE
  5
288
330
65
100
AcDbEntity
  8
アジャスター_大昌H150_12
  6
CONTINUOUS
 62
     7
100
AcDbLine
 10
179.8205899052
 20
58.0285053269
 30
0.0
 11
180.4205899052
 21
58.0285053269
 31
0.0
  0
LINE
  5
28A
330
65
100
AcDbEntity
  8
ﾐﾗｰ転点防止金具_後_1608
  6
CONTINUOUS
 62
     7
100
AcDbLine
 10
178.1005899052
 20
59.0085053269
 30
0.0
 11
178.8205899052
 21
59.0085053269
 31
0.0
  0
LINE
  5
28B
330
65
100
AcDbEntity
  8
ﾐﾗｰ転点防止金具_後_1608
  6
CONTINUOUS
 62
     7
100
AcDbLine
 10
179.8205899052
 20
59.0085053269
 30
0.0
 11
180.4005899052
 21
59.0085053269
 31
0.0
  0
LINE
  5
28C
330
65
100
AcDbEntity
  8
ﾐﾗｰ転点防止金具_後_1608
  6
CONTINUOUS
 62
     7
100
AcDbLine
 10
177.7205899052
 20
59.0085053269
 30
0.0
 11
178.1005899052
 21
59.0085053269
 31
0.0
  0
LINE
  5
28D
330
65
100
AcDbEntity
  8
ﾐﾗｰ転点防止金具_後_1608
  6
CONTINUOUS
 62
     7
100
AcDbLine
 10
180.4005899052
 20
59.0085053269
 30
0.0
 11
180.4205899052
 21
59.0085053269
 31
0.0
  0
LINE
  5
28F
330
65
100
AcDbEntity
  8
TE100N_S__150205
  6
CONTINUOUS
 62
     7
100
AcDbLine
 10
94.9205899052
 20
58.0285053269
 30
0.0
 11
94.9205899052
 21
59.0773021508
 31
0.0
  0
LINE
  5
290
330
65
100
AcDbEntity
  8
TE100N_S__150205
  6
CONTINUOUS
 62
     7
100
AcDbLine
 10
93.2761977492
 20
57.8285053269
 30
0.0
 11
93.2761977492
 21
66.2285053269
 31
0.0
  0
LINE
  5
291
330
65
100
AcDbEntity
  8
TE100N_S__150205
  6
CONTINUOUS
 62
     7
100
AcDbLine
 10
93.1262317193
 20
60.2785053269
 30
0.0
 11
93.1262317193
 21
63.7785053269
 31
0.0
  0
LINE
  5
292
330
65
100
AcDbEntity
  8
TE100N_S__150205
  6
CONTINUOUS
 62
     7
100
AcDbLine
 10
93.1062151279
 20
60.2785053269
 30
0.0
 11
93.1062151279
 21
63.7785053269
 31
0.0
  0
LINE
  5
293
330
65
100
AcDbEntity
  8
TE100N_S__150205
  6
CONTINUOUS
 62
     7
100
AcDbLine
 10
97.6205899052
 20
58.0285053269
 30
0.0
 11
97.6205899052
 21
59.0773021508
 31
0.0
  0
LINE
  5
294
330
65
100
AcDbEntity
  8
TE100N_S__150205
  6
CONTINUOUS
 62
     7
100
AcDbLine
 10
99.2649820612
 20
57.8285053269
 30
0.0
 11
99.2649820612
 21
66.2285053269
 31
0.0
  0
LINE
  5
295
330
65
100
AcDbEntity
  8
TE100N_S__150205
  6
CONTINUOUS
 62
     7
100
AcDbLine
 10
99.4149480911
 20
60.2785053269
 30
0.0
 11
99.4149480911
 21
63.7785053269
 31
0.0
  0
LINE
  5
296
330
65
100
AcDbEntity
  8
TE100N_S__150205
  6
CONTINUOUS
 62
     7
100
AcDbLine
 10
99.4349646824
 20
60.2785053269
 30
0.0
 11
99.4349646824
 21
63.7785053269
 31
0.0
  0
LINE
  5
297
330
65
100
AcDbEntity
  8
TE100N_S__150205
  6
CONTINUOUS
 62
     7
100
AcDbLine
 10
94.7705899052
 20
67.0285053269
 30
0.0
 11
94.7205899052
 21
67.0285053269
 31
0.0
  0
LINE
  5
298
330
65
100
AcDbEntity
  8
TE100N_S__150205
  6
CONTINUOUS
 62
     7
100
AcDbLine
 10
94.1205899052
 20
67.0285053269
 30
0.0
 11
93.7645619659
 21
67.0285053269
 31
0.0
  0
LINE
  5
299
330
65
100
AcDbEntity
  8
TE100N_S__150205
  6
CONTINUOUS
 62
     7
100
AcDbLine
 10
93.7645619659
 20
57.0285053269
 30
0.0
 11
94.1801242145
 21
57.0285053269
 31
0.0
  0
ARC
  5
29A
330
65
100
AcDbEntity
  8
TE100N_S__150205
  6
CONTINUOUS
 62
     7
100
AcDbCircle
 10
93.7645619659
 20
66.5785053269
 30
0.0
 40
0.4500000000000004
100
AcDbArc
 50
90.0
 51
173.8614524269
  0
ARC
  5
29B
330
65
100
AcDbEntity
  8
TE100N_S__150205
  6
CONTINUOUS
 62
     7
100
AcDbCircle
 10
93.7645619659
 20
57.4785053269
 30
0.0
 40
0.4499999999999988
100
AcDbArc
 50
186.1385475731
 51
270.0
  0
ARC
  5
29C
330
65
100
AcDbEntity
  8
TE100N_S__150205
  6
CONTINUOUS
 62
     7
100
AcDbCircle
 10
136.0705899052
 20
62.0285053269
 30
0.0
 40
43.00000000000001
100
AcDbArc
 50
185.6052688132
 51
186.1385475731
  0
ARC
  5
29D
330
65
100
AcDbEntity
  8
TE100N_S__150205
  6
CONTINUOUS
 62
     7
100
AcDbCircle
 10
136.0705899052
 20
62.0285053269
 30
0.0
 40
43.00000000000001
100
AcDbArc
 50
173.8614524269
 51
174.3947311868
  0
ARC
  5
29E
330
65
100
AcDbEntity
  8
TE100N_S__150205
  6
CONTINUOUS
 62
     7
100
AcDbCircle
 10
136.0705899052
 20
62.0285053269
 30
0.0
 40
42.98000000000001
100
AcDbArc
 50
184.7433623302
 51
185.3267093737
  0
ARC
  5
29F
330
65
100
AcDbEntity
  8
TE100N_S__150205
  6
CONTINUOUS
 62
     7
100
AcDbCircle
 10
136.0705899052
 20
62.0285053269
 30
0.0
 40
42.98
100
AcDbArc
 50
174.6732906263
 51
175.2566376698
  0
LINE
  5
2A0
330
65
100
AcDbEntity
  8
TE100N_S__150205
  6
CONTINUOUS
 62
     7
100
AcDbLine
 10
93.2376213312
 20
64.6285053269
 30
0.0
 11
93.2163905777
 21
64.6285053269
 31
0.0
  0
LINE
  5
2A1
330
65
100
AcDbEntity
  8
TE100N_S__150205
  6
CONTINUOUS
 62
     7
100
AcDbLine
 10
93.2163905777
 20
59.4285053269
 30
0.0
 11
93.2376213312
 21
59.4285053269
 31
0.0
  0
ARC
  5
2A2
330
65
100
AcDbEntity
  8
TE100N_S__150205
  6
CONTINUOUS
 62
     7
100
AcDbCircle
 10
136.0705899052
 20
62.0285053269
 30
0.0
 40
42.98000000000001
100
AcDbArc
 50
182.3335351207
 51
183.4053177191
  0
ARC
  5
2A3
330
65
100
AcDbEntity
  8
TE100N_S__150205
  6
CONTINUOUS
 62
     7
100
AcDbCircle
 10
136.0705899052
 20
62.0285053269
 30
0.0
 40
42.98000000000001
100
AcDbArc
 50
176.5946822809
 51
177.6664648793
  0
LINE
  5
2A4
330
65
100
AcDbEntity
  8
TE100N_S__150205
  6
CONTINUOUS
 62
     7
100
AcDbLine
 10
93.1262317193
 20
63.7785053269
 30
0.0
 11
93.1062151279
 21
63.7785053269
 31
0.0
  0
LINE
  5
2A5
330
65
100
AcDbEntity
  8
TE100N_S__150205
  6
CONTINUOUS
 62
     7
100
AcDbLine
 10
93.1062151279
 20
60.2785053269
 30
0.0
 11
93.1262317193
 21
60.2785053269
 31
0.0
  0
ARC
  5
2A6
330
65
100
AcDbEntity
  8
TE100N_S__150205
  6
CONTINUOUS
 62
     7
100
AcDbCircle
 10
136.0705899052
 20
62.0285053269
 30
0.0
 40
43.0
100
AcDbArc
 50
177.6675508445
 51
182.3324491555
  0
ARC
  5
2A7
330
65
100
AcDbEntity
  8
TE100N_S__150205
  6
CONTINUOUS
 62
     7
100
AcDbCircle
 10
93.2163905777
 20
64.5785053269
 30
0.0
 40
0.0500000000000001
100
AcDbArc
 50
90.0
 51
176.5946822809
  0
ARC
  5
2A8
330
65
100
AcDbEntity
  8
TE100N_S__150205
  6
CONTINUOUS
 62
     7
100
AcDbCircle
 10
93.2163905777
 20
59.4785053269
 30
0.0
 40
0.0499999999999968
100
AcDbArc
 50
183.4053177192
 51
270.0
  0
ARC
  5
2A9
330
65
100
AcDbEntity
  8
TE100N_S__150205
  6
CONTINUOUS
 62
     7
100
AcDbCircle
 10
93.2876213312
 20
65.5785053269
 30
0.0
 40
0.0500000000000028
100
AcDbArc
 50
175.2566376697
 51
180.0
  0
ARC
  5
2AA
330
65
100
AcDbEntity
  8
TE100N_S__150205
  6
CONTINUOUS
 62
     7
100
AcDbCircle
 10
93.2876213312
 20
58.4785053269
 30
0.0
 40
0.0500000000000001
100
AcDbArc
 50
180.0
 51
184.7433623302
  0
LINE
  5
2AB
330
65
100
AcDbEntity
  8
TE100N_S__150205
  6
CONTINUOUS
 62
     7
100
AcDbLine
 10
93.2376213312
 20
65.5785053269
 30
0.0
 11
93.2376213312
 21
58.4785053269
 31
0.0
  0
LINE
  5
2AC
330
65
100
AcDbEntity
  8
TE100N_S__150205
  6
CONTINUOUS
 62
     7
100
AcDbLine
 10
97.8610555959
 20
57.0285053269
 30
0.0
 11
98.7766178445
 21
57.0285053269
 31
0.0
  0
LINE
  5
2AD
330
65
100
AcDbEntity
  8
TE100N_S__150205
  6
CONTINUOUS
 62
     7
100
AcDbLine
 10
98.7766178445
 20
67.0285053269
 30
0.0
 11
98.0705899052
 21
67.0285053269
 31
0.0
  0
ARC
  5
2AE
330
65
100
AcDbEntity
  8
TE100N_S__150205
  6
CONTINUOUS
 62
     7
100
AcDbCircle
 10
98.7766178445
 20
57.4785053269
 30
0.0
 40
0.4500000000000002
100
AcDbArc
 50
270.0
 51
353.8614524269
  0
ARC
  5
2AF
330
65
100
AcDbEntity
  8
TE100N_S__150205
  6
CONTINUOUS
 62
     7
100
AcDbCircle
 10
98.7766178445
 20
66.5785053269
 30
0.0
 40
0.4499999999999988
100
AcDbArc
 50
6.1385475731
 51
90.0
  0
ARC
  5
2B0
330
65
100
AcDbEntity
  8
TE100N_S__150205
  6
CONTINUOUS
 62
     7
100
AcDbCircle
 10
56.4705899052
 20
62.0285053269
 30
0.0
 40
43.00000000000001
100
AcDbArc
 50
353.8614524269
 51
354.3947311868
  0
ARC
  5
2B1
330
65
100
AcDbEntity
  8
TE100N_S__150205
  6
CONTINUOUS
 62
     7
100
AcDbCircle
 10
56.4705899052
 20
62.0285053269
 30
0.0
 40
43.00000000000001
100
AcDbArc
 50
5.6052688132
 51
6.1385475731
  0
ARC
  5
2B2
330
65
100
AcDbEntity
  8
TE100N_S__150205
  6
CONTINUOUS
 62
     7
100
AcDbCircle
 10
56.4705899052
 20
62.0285053269
 30
0.0
 40
42.98000000000002
100
AcDbArc
 50
354.6732906263
 51
355.2566376698
  0
ARC
  5
2B3
330
65
100
AcDbEntity
  8
TE100N_S__150205
  6
CONTINUOUS
 62
     7
100
AcDbCircle
 10
56.4705899052
 20
62.0285053269
 30
0.0
 40
42.98000000000002
100
AcDbArc
 50
4.7433623302
 51
5.3267093737
  0
LINE
  5
2B4
330
65
100
AcDbEntity
  8
TE100N_S__150205
  6
CONTINUOUS
 62
     7
100
AcDbLine
 10
99.3035584791
 20
59.4285053269
 30
0.0
 11
99.3247892327
 21
59.4285053269
 31
0.0
  0
LINE
  5
2B5
330
65
100
AcDbEntity
  8
TE100N_S__150205
  6
CONTINUOUS
 62
     7
100
AcDbLine
 10
99.3247892327
 20
64.6285053269
 30
0.0
 11
99.3035584791
 21
64.6285053269
 31
0.0
  0
ARC
  5
2B6
330
65
100
AcDbEntity
  8
TE100N_S__150205
  6
CONTINUOUS
 62
     7
100
AcDbCircle
 10
56.4705899052
 20
62.0285053269
 30
0.0
 40
42.98000000000001
100
AcDbArc
 50
356.5946822809
 51
357.6664648793
  0
ARC
  5
2B7
330
65
100
AcDbEntity
  8
TE100N_S__150205
  6
CONTINUOUS
 62
     7
100
AcDbCircle
 10
56.4705899052
 20
62.0285053269
 30
0.0
 40
42.98000000000002
100
AcDbArc
 50
2.3335351207
 51
3.4053177191
  0
LINE
  5
2B8
330
65
100
AcDbEntity
  8
TE100N_S__150205
  6
CONTINUOUS
 62
     7
100
AcDbLine
 10
99.4149480911
 20
60.2785053269
 30
0.0
 11
99.4349646824
 21
60.2785053269
 31
0.0
  0
LINE
  5
2B9
330
65
100
AcDbEntity
  8
TE100N_S__150205
  6
CONTINUOUS
 62
     7
100
AcDbLine
 10
99.4349646824
 20
63.7785053269
 30
0.0
 11
99.4149480911
 21
63.7785053269
 31
0.0
  0
ARC
  5
2BA
330
65
100
AcDbEntity
  8
TE100N_S__150205
  6
CONTINUOUS
 62
     7
100
AcDbCircle
 10
56.4705899052
 20
62.0285053269
 30
0.0
 40
43.00000000000001
100
AcDbArc
 50
357.6675508445
 51
0.0
  0
ARC
  5
2BB
330
65
100
AcDbEntity
  8
TE100N_S__150205
  6
CONTINUOUS
 62
     7
100
AcDbCircle
 10
56.4705899052
 20
62.0285053269
 30
0.0
 40
43.00000000000001
100
AcDbArc
 50
0.0
 51
2.3324491555
  0
ARC
  5
2BC
330
65
100
AcDbEntity
  8
TE100N_S__150205
  6
CONTINUOUS
 62
     7
100
AcDbCircle
 10
99.3247892327
 20
59.4785053269
 30
0.0
 40
0.0500000000000001
100
AcDbArc
 50
270.0
 51
356.5946822808
  0
ARC
  5
2BD
330
65
100
AcDbEntity
  8
TE100N_S__150205
  6
CONTINUOUS
 62
     7
100
AcDbCircle
 10
99.3247892327
 20
64.5785053269
 30
0.0
 40
0.0500000000000022
100
AcDbArc
 50
3.4053177192
 51
90.0
  0
ARC
  5
2BE
330
65
100
AcDbEntity
  8
TE100N_S__150205
  6
CONTINUOUS
 62
     7
100
AcDbCircle
 10
99.2535584791
 20
58.4785053269
 30
0.0
 40
0.0499999999999974
100
AcDbArc
 50
355.2566376698
 51
0.0
  0
ARC
  5
2BF
330
65
100
AcDbEntity
  8
TE100N_S__150205
  6
CONTINUOUS
 62
     7
100
AcDbCircle
 10
99.2535584791
 20
65.5785053269
 30
0.0
 40
0.0500000000000001
100
AcDbArc
 50
0.0
 51
4.7433623302
  0
LINE
  5
2C0
330
65
100
AcDbEntity
  8
TE100N_S__150205
  6
CONTINUOUS
 62
     7
100
AcDbLine
 10
99.3035584791
 20
58.4785053269
 30
0.0
 11
99.3035584791
 21
65.5785053269
 31
0.0
  0
LINE
  5
2C1
330
65
100
AcDbEntity
  8
TE100N_S__150205
  6
CONTINUOUS
 62
     7
100
AcDbLine
 10
177.7205899052
 20
58.0285053269
 30
0.0
 11
177.7205899052
 21
59.0773021508
 31
0.0
  0
LINE
  5
2C2
330
65
100
AcDbEntity
  8
TE100N_S__150205
  6
CONTINUOUS
 62
     7
100
AcDbLine
 10
176.0761977492
 20
57.8285053269
 30
0.0
 11
176.0761977492
 21
66.2285053269
 31
0.0
  0
LINE
  5
2C3
330
65
100
AcDbEntity
  8
TE100N_S__150205
  6
CONTINUOUS
 62
     7
100
AcDbLine
 10
175.9262317193
 20
60.2785053269
 30
0.0
 11
175.9262317193
 21
63.7785053269
 31
0.0
  0
LINE
  5
2C4
330
65
100
AcDbEntity
  8
TE100N_S__150205
  6
CONTINUOUS
 62
     7
100
AcDbLine
 10
175.9062151279
 20
60.2785053269
 30
0.0
 11
175.9062151279
 21
63.7785053269
 31
0.0
  0
LINE
  5
2C5
330
65
100
AcDbEntity
  8
TE100N_S__150205
  6
CONTINUOUS
 62
     7
100
AcDbLine
 10
180.4205899052
 20
58.0285053269
 30
0.0
 11
180.4205899052
 21
59.0773021508
 31
0.0
  0
LINE
  5
2C6
330
65
100
AcDbEntity
  8
TE100N_S__150205
  6
CONTINUOUS
 62
     7
100
AcDbLine
 10
182.0649820612
 20
57.8285053269
 30
0.0
 11
182.0649820612
 21
66.2285053269
 31
0.0
  0
LINE
  5
2C7
330
65
100
AcDbEntity
  8
TE100N_S__150205
  6
CONTINUOUS
 62
     7
100
AcDbLine
 10
182.2149480911
 20
60.2785053269
 30
0.0
 11
182.2149480911
 21
63.7785053269
 31
0.0
  0
LINE
  5
2C8
330
65
100
AcDbEntity
  8
TE100N_S__150205
  6
CONTINUOUS
 62
     7
100
AcDbLine
 10
182.2349646824
 20
60.2785053269
 30
0.0
 11
182.2349646824
 21
63.7785053269
 31
0.0
  0
LINE
  5
2C9
330
65
100
AcDbEntity
  8
TE100N_S__150205
  6
CONTINUOUS
 62
     7
100
AcDbLine
 10
177.2705899052
 20
67.0285053269
 30
0.0
 11
176.5645619659
 21
67.0285053269
 31
0.0
  0
LINE
  5
2CA
330
65
100
AcDbEntity
  8
TE100N_S__150205
  6
CONTINUOUS
 62
     7
100
AcDbLine
 10
176.5645619659
 20
57.0285053269
 30
0.0
 11
177.4801242145
 21
57.0285053269
 31
0.0
  0
ARC
  5
2CB
330
65
100
AcDbEntity
  8
TE100N_S__150205
  6
CONTINUOUS
 62
     7
100
AcDbCircle
 10
176.5645619659
 20
66.5785053269
 30
0.0
 40
0.4500000000000004
100
AcDbArc
 50
90.0
 51
173.8614524269
  0
ARC
  5
2CC
330
65
100
AcDbEntity
  8
TE100N_S__150205
  6
CONTINUOUS
 62
     7
100
AcDbCircle
 10
176.5645619659
 20
57.4785053269
 30
0.0
 40
0.4499999999999988
100
AcDbArc
 50
186.1385475731
 51
270.0
  0
ARC
  5
2CD
330
65
100
AcDbEntity
  8
TE100N_S__150205
  6
CONTINUOUS
 62
     7
100
AcDbCircle
 10
218.8705899052
 20
62.0285053269
 30
0.0
 40
43.00000000000001
100
AcDbArc
 50
185.6052688132
 51
186.1385475731
  0
ARC
  5
2CE
330
65
100
AcDbEntity
  8
TE100N_S__150205
  6
CONTINUOUS
 62
     7
100
AcDbCircle
 10
218.8705899052
 20
62.0285053269
 30
0.0
 40
43.00000000000001
100
AcDbArc
 50
173.8614524269
 51
174.3947311868
  0
ARC
  5
2CF
330
65
100
AcDbEntity
  8
TE100N_S__150205
  6
CONTINUOUS
 62
     7
100
AcDbCircle
 10
218.8705899052
 20
62.0285053269
 30
0.0
 40
42.98000000000001
100
AcDbArc
 50
184.7433623302
 51
185.3267093737
  0
ARC
  5
2D0
330
65
100
AcDbEntity
  8
TE100N_S__150205
  6
CONTINUOUS
 62
     7
100
AcDbCircle
 10
218.8705899052
 20
62.0285053269
 30
0.0
 40
42.98000000000001
100
AcDbArc
 50
174.6732906263
 51
175.2566376698
  0
LINE
  5
2D1
330
65
100
AcDbEntity
  8
TE100N_S__150205
  6
CONTINUOUS
 62
     7
100
AcDbLine
 10
176.0376213312
 20
64.6285053269
 30
0.0
 11
176.0163905777
 21
64.6285053269
 31
0.0
  0
LINE
  5
2D2
330
65
100
AcDbEntity
  8
TE100N_S__150205
  6
CONTINUOUS
 62
     7
100
AcDbLine
 10
176.0163905777
 20
59.4285053269
 30
0.0
 11
176.0376213312
 21
59.4285053269
 31
0.0
  0
ARC
  5
2D3
330
65
100
AcDbEntity
  8
TE100N_S__150205
  6
CONTINUOUS
 62
     7
100
AcDbCircle
 10
218.8705899052
 20
62.0285053269
 30
0.0
 40
42.98000000000002
100
AcDbArc
 50
182.3335351207
 51
183.4053177191
  0
ARC
  5
2D4
330
65
100
AcDbEntity
  8
TE100N_S__150205
  6
CONTINUOUS
 62
     7
100
AcDbCircle
 10
218.8705899052
 20
62.0285053269
 30
0.0
 40
42.98000000000002
100
AcDbArc
 50
176.5946822809
 51
177.6664648793
  0
LINE
  5
2D5
330
65
100
AcDbEntity
  8
TE100N_S__150205
  6
CONTINUOUS
 62
     7
100
AcDbLine
 10
175.9262317193
 20
63.7785053269
 30
0.0
 11
175.9062151279
 21
63.7785053269
 31
0.0
  0
LINE
  5
2D6
330
65
100
AcDbEntity
  8
TE100N_S__150205
  6
CONTINUOUS
 62
     7
100
AcDbLine
 10
175.9062151279
 20
60.2785053269
 30
0.0
 11
175.9262317193
 21
60.2785053269
 31
0.0
  0
ARC
  5
2D7
330
65
100
AcDbEntity
  8
TE100N_S__150205
  6
CONTINUOUS
 62
     7
100
AcDbCircle
 10
218.8705899052
 20
62.0285053269
 30
0.0
 40
43.00000000000001
100
AcDbArc
 50
177.6675508445
 51
182.3324491555
  0
ARC
  5
2D8
330
65
100
AcDbEntity
  8
TE100N_S__150205
  6
CONTINUOUS
 62
     7
100
AcDbCircle
 10
176.0163905777
 20
64.5785053269
 30
0.0
 40
0.0500000000000001
100
AcDbArc
 50
90.0
 51
176.5946822809
  0
ARC
  5
2D9
330
65
100
AcDbEntity
  8
TE100N_S__150205
  6
CONTINUOUS
 62
     7
100
AcDbCircle
 10
176.0163905777
 20
59.4785053269
 30
0.0
 40
0.0499999999999968
100
AcDbArc
 50
183.4053177192
 51
270.0
  0
ARC
  5
2DA
330
65
100
AcDbEntity
  8
TE100N_S__150205
  6
CONTINUOUS
 62
     7
100
AcDbCircle
 10
176.0876213312
 20
65.5785053269
 30
0.0
 40
0.0500000000000028
100
AcDbArc
 50
175.2566376697
 51
180.0
  0
ARC
  5
2DB
330
65
100
AcDbEntity
  8
TE100N_S__150205
  6
CONTINUOUS
 62
     7
100
AcDbCircle
 10
176.0876213312
 20
58.4785053269
 30
0.0
 40
0.0500000000000001
100
AcDbArc
 50
180.0
 51
184.7433623302
  0
LINE
  5
2DC
330
65
100
AcDbEntity
  8
TE100N_S__150205
  6
CONTINUOUS
 62
     7
100
AcDbLine
 10
176.0376213312
 20
65.5785053269
 30
0.0
 11
176.0376213312
 21
58.4785053269
 31
0.0
  0
LINE
  5
2DD
330
65
100
AcDbEntity
  8
TE100N_S__150205
  6
CONTINUOUS
 62
     7
100
AcDbLine
 10
181.1610555959
 20
57.0285053269
 30
0.0
 11
181.5766178445
 21
57.0285053269
 31
0.0
  0
LINE
  5
2DE
330
65
100
AcDbEntity
  8
TE100N_S__150205
  6
CONTINUOUS
 62
     7
100
AcDbLine
 10
181.5766178445
 20
67.0285053269
 30
0.0
 11
181.2205899052
 21
67.0285053269
 31
0.0
  0
LINE
  5
2DF
330
65
100
AcDbEntity
  8
TE100N_S__150205
  6
CONTINUOUS
 62
     7
100
AcDbLine
 10
180.6205899052
 20
67.0285053269
 30
0.0
 11
180.5705899052
 21
67.0285053269
 31
0.0
  0
ARC
  5
2E0
330
65
100
AcDbEntity
  8
TE100N_S__150205
  6
CONTINUOUS
 62
     7
100
AcDbCircle
 10
181.5766178445
 20
57.4785053269
 30
0.0
 40
0.4500000000000002
100
AcDbArc
 50
270.0
 51
353.8614524269
  0
ARC
  5
2E1
330
65
100
AcDbEntity
  8
TE100N_S__150205
  6
CONTINUOUS
 62
     7
100
AcDbCircle
 10
181.5766178445
 20
66.5785053269
 30
0.0
 40
0.4499999999999988
100
AcDbArc
 50
6.1385475731
 51
90.0
  0
ARC
  5
2E2
330
65
100
AcDbEntity
  8
TE100N_S__150205
  6
CONTINUOUS
 62
     7
100
AcDbCircle
 10
139.2705899052
 20
62.0285053269
 30
0.0
 40
43.00000000000001
100
AcDbArc
 50
353.8614524269
 51
354.3947311868
  0
ARC
  5
2E3
330
65
100
AcDbEntity
  8
TE100N_S__150205
  6
CONTINUOUS
 62
     7
100
AcDbCircle
 10
139.2705899052
 20
62.0285053269
 30
0.0
 40
43.00000000000001
100
AcDbArc
 50
5.6052688132
 51
6.1385475731
  0
ARC
  5
2E4
330
65
100
AcDbEntity
  8
TE100N_S__150205
  6
CONTINUOUS
 62
     7
100
AcDbCircle
 10
139.2705899052
 20
62.0285053269
 30
0.0
 40
42.98000000000001
100
AcDbArc
 50
354.6732906263
 51
355.2566376698
  0
ARC
  5
2E5
330
65
100
AcDbEntity
  8
TE100N_S__150205
  6
CONTINUOUS
 62
     7
100
AcDbCircle
 10
139.2705899052
 20
62.0285053269
 30
0.0
 40
42.98000000000001
100
AcDbArc
 50
4.7433623302
 51
5.3267093737
  0
LINE
  5
2E6
330
65
100
AcDbEntity
  8
TE100N_S__150205
  6
CONTINUOUS
 62
     7
100
AcDbLine
 10
182.1035584791
 20
59.4285053269
 30
0.0
 11
182.1247892327
 21
59.4285053269
 31
0.0
  0
LINE
  5
2E7
330
65
100
AcDbEntity
  8
TE100N_S__150205
  6
CONTINUOUS
 62
     7
100
AcDbLine
 10
182.1247892327
 20
64.6285053269
 30
0.0
 11
182.1035584791
 21
64.6285053269
 31
0.0
  0
ARC
  5
2E8
330
65
100
AcDbEntity
  8
TE100N_S__150205
  6
CONTINUOUS
 62
     7
100
AcDbCircle
 10
139.2705899052
 20
62.0285053269
 30
0.0
 40
42.98000000000001
100
AcDbArc
 50
356.5946822809
 51
357.6664648793
  0
ARC
  5
2E9
330
65
100
AcDbEntity
  8
TE100N_S__150205
  6
CONTINUOUS
 62
     7
100
AcDbCircle
 10
139.2705899052
 20
62.0285053269
 30
0.0
 40
42.98000000000001
100
AcDbArc
 50
2.3335351207
 51
3.4053177191
  0
LINE
  5
2EA
330
65
100
AcDbEntity
  8
TE100N_S__150205
  6
CONTINUOUS
 62
     7
100
AcDbLine
 10
182.2149480911
 20
60.2785053269
 30
0.0
 11
182.2349646824
 21
60.2785053269
 31
0.0
  0
LINE
  5
2EB
330
65
100
AcDbEntity
  8
TE100N_S__150205
  6
CONTINUOUS
 62
     7
100
AcDbLine
 10
182.2349646824
 20
63.7785053269
 30
0.0
 11
182.2149480911
 21
63.7785053269
 31
0.0
  0
ARC
  5
2EC
330
65
100
AcDbEntity
  8
TE100N_S__150205
  6
CONTINUOUS
 62
     7
100
AcDbCircle
 10
139.2705899052
 20
62.0285053269
 30
0.0
 40
43.0
100
AcDbArc
 50
357.6675508445
 51
0.0
  0
ARC
  5
2ED
330
65
100
AcDbEntity
  8
TE100N_S__150205
  6
CONTINUOUS
 62
     7
100
AcDbCircle
 10
139.2705899052
 20
62.0285053269
 30
0.0
 40
43.0
100
AcDbArc
 50
0.0
 51
2.3324491555
  0
ARC
  5
2EE
330
65
100
AcDbEntity
  8
TE100N_S__150205
  6
CONTINUOUS
 62
     7
100
AcDbCircle
 10
182.1247892327
 20
59.4785053269
 30
0.0
 40
0.0500000000000001
100
AcDbArc
 50
270.0
 51
356.5946822808
  0
ARC
  5
2EF
330
65
100
AcDbEntity
  8
TE100N_S__150205
  6
CONTINUOUS
 62
     7
100
AcDbCircle
 10
182.1247892327
 20
64.5785053269
 30
0.0
 40
0.0500000000000022
100
AcDbArc
 50
3.4053177192
 51
90.0
  0
ARC
  5
2F0
330
65
100
AcDbEntity
  8
TE100N_S__150205
  6
CONTINUOUS
 62
     7
100
AcDbCircle
 10
182.0535584791
 20
58.4785053269
 30
0.0
 40
0.0499999999999974
100
AcDbArc
 50
355.2566376698
 51
0.0
  0
ARC
  5
2F1
330
65
100
AcDbEntity
  8
TE100N_S__150205
  6
CONTINUOUS
 62
     7
100
AcDbCircle
 10
182.0535584791
 20
65.5785053269
 30
0.0
 40
0.0500000000000001
100
AcDbArc
 50
0.0
 51
4.7433623302
  0
LINE
  5
2F2
330
65
100
AcDbEntity
  8
TE100N_S__150205
  6
CONTINUOUS
 62
     7
100
AcDbLine
 10
182.1035584791
 20
58.4785053269
 30
0.0
 11
182.1035584791
 21
65.5785053269
 31
0.0
  0
LINE
  5
2F4
330
65
100
AcDbEntity
  8
DV1_ﾃﾞﾌｫﾙﾄ
  6
CONTINUOUS
 62
     7
100
AcDbLine
 10
39.6205899052
 20
141.4707815966
 30
0.0
 11
235.7205899052
 21
141.4707815966
 31
0.0
  0
LINE
  5
2F5
330
65
100
AcDbEntity
  8
DV1_ﾃﾞﾌｫﾙﾄ
  6
CONTINUOUS
 62
     7
100
AcDbLine
 10
238.1205899052
 20
143.8707815966
 30
0.0
 11
238.1205899052
 21
259.1107815966
 31
0.0
  0
LINE
  5
2F6
330
65
100
AcDbEntity
  8
DV1_ﾃﾞﾌｫﾙﾄ
  6
CONTINUOUS
 62
     7
100
AcDbLine
 10
235.7205899052
 20
261.5107815966
 30
0.0
 11
39.6205899052
 21
261.5107815966
 31
0.0
  0
LINE
  5
2F7
330
65
100
AcDbEntity
  8
DV1_ﾃﾞﾌｫﾙﾄ
  6
CONTINUOUS
 62
     7
100
AcDbLine
 10
37.2205899052
 20
259.1107815966
 30
0.0
 11
37.2205899052
 21
143.8707815966
 31
0.0
  0
POLYLINE
  5
2F9
330
65
100
AcDbEntity
  8
DV1_AUTO_-_HIDE
  6
CONTINUOUS
 62
     7
100
AcDb2dPolyline
 66
     1
 10
0.0
 20
0.0
 30
0.0
  0
VERTEX
  5
5A8
330
2F9
100
AcDbEntity
  8
DV1_AUTO_-_HIDE
  6
CONTINUOUS
 62
     7
100
AcDbVertex
100
AcDb2dVertex
 10
235.4005899133
 20
330.3918233123
 30
0.0
  0
VERTEX
  5
5A9
330
2F9
100
AcDbEntity
  8
DV1_AUTO_-_HIDE
  6
CONTINUOUS
 62
     7
100
AcDbVertex
100
AcDb2dVertex
 10
235.7205899052
 20
330.4451566443
 30
0.0
  0
VERTEX
  5
5AA
330
2F9
100
AcDbEntity
  8
DV1_AUTO_-_HIDE
  6
CONTINUOUS
 62
     7
100
AcDbVertex
100
AcDb2dVertex
 10
235.4005899133
 20
330.4984899763
 30
0.0
  0
SEQEND
  5
5AB
330
2F9
100
AcDbEntity
  8
DV1_AUTO_-_HIDE
  6
CONTINUOUS
 62
     7
  0
POLYLINE
  5
2FA
330
65
100
AcDbEntity
  8
DV1_AUTO_-_HIDE
  6
CONTINUOUS
 62
     7
100
AcDb2dPolyline
 66
     1
 10
0.0
 20
0.0
 30
0.0
  0
VERTEX
  5
5AC
330
2FA
100
AcDbEntity
  8
DV1_AUTO_-_HIDE
  6
CONTINUOUS
 62
     7
100
AcDbVertex
100
AcDb2dVertex
 10
39.9405933303
 20
330.3918233123
 30
0.0
  0
VERTEX
  5
5AD
330
2FA
100
AcDbEntity
  8
DV1_AUTO_-_HIDE
  6
CONTINUOUS
 62
     7
100
AcDbVertex
100
AcDb2dVertex
 10
39.6205933384
 20
330.4451566443
 30
0.0
  0
VERTEX
  5
5AE
330
2FA
100
AcDbEntity
  8
DV1_AUTO_-_HIDE
  6
CONTINUOUS
 62
     7
100
AcDbVertex
100
AcDb2dVertex
 10
39.9405933303
 20
330.4984899763
 30
0.0
  0
SEQEND
  5
5AF
330
2FA
100
AcDbEntity
  8
DV1_AUTO_-_HIDE
  6
CONTINUOUS
 62
     7
  0
LINE
  5
2FB
330
65
100
AcDbEntity
  8
DV1_AUTO_-_HIDE
  6
CONTINUOUS
 62
     7
100
AcDbLine
 10
235.7205899052
 20
261.6387815934
 30
0.0
 11
235.7205899052
 21
330.6051566403
 31
0.0
  0
LINE
  5
2FC
330
65
100
AcDbEntity
  8
DV1_AUTO_-_HIDE
  6
CONTINUOUS
 62
     7
100
AcDbLine
 10
39.6205899052
 20
261.6387815934
 30
0.0
 11
39.6205899052
 21
330.6051566403
 31
0.0
  0
LINE
  5
2FD
330
65
100
AcDbEntity
  8
DV1_AUTO_-_HIDE
  6
CONTINUOUS
 62
     7
100
AcDbLine
 10
235.7205899052
 20
330.4451566443
 30
0.0
 11
39.6205933384
 21
330.4451566443
 31
0.0
  0
TEXT
  5
2FE
330
65
100
AcDbEntity
  8
DV1_AUTO_-_HIDE
  6
CONTINUOUS
 62
     7
100
AcDbText
 10
137.2022989389
 20
330.5251566443
 30
0.0
 40
0.32
  1
1961
  7
SEACAD_SEANSI_TTF
 11
137.2022989389
 21
330.8451566443
 31
0.0
100
AcDbText
 73
     3
  0
POLYLINE
  5
2FF
330
65
100
AcDbEntity
  8
DV1_AUTO_-_HIDE
  6
CONTINUOUS
 62
     7
100
AcDb2dPolyline
 66
     1
 10
0.0
 20
0.0
 30
0.0
  0
VERTEX
  5
5B0
330
2FF
100
AcDbEntity
  8
DV1_AUTO_-_HIDE
  6
CONTINUOUS
 62
     7
100
AcDbVertex
100
AcDb2dVertex
 10
-70.7116686513
 20
258.7907816047
 30
0.0
  0
VERTEX
  5
5B1
330
2FF
100
AcDbEntity
  8
DV1_AUTO_-_HIDE
  6
CONTINUOUS
 62
     7
100
AcDbVertex
100
AcDb2dVertex
 10
-70.7650019833
 20
259.1107815966
 30
0.0
  0
VERTEX
  5
5B2
330
2FF
100
AcDbEntity
  8
DV1_AUTO_-_HIDE
  6
CONTINUOUS
 62
     7
100
AcDbVertex
100
AcDb2dVertex
 10
-70.8183353152
 20
258.7907816047
 30
0.0
  0
SEQEND
  5
5B3
330
2FF
100
AcDbEntity
  8
DV1_AUTO_-_HIDE
  6
CONTINUOUS
 62
     7
  0
POLYLINE
  5
300
330
65
100
AcDbEntity
  8
DV1_AUTO_-_HIDE
  6
CONTINUOUS
 62
     7
100
AcDb2dPolyline
 66
     1
 10
0.0
 20
0.0
 30
0.0
  0
VERTEX
  5
5B4
330
300
100
AcDbEntity
  8
DV1_AUTO_-_HIDE
  6
CONTINUOUS
 62
     7
100
AcDbVertex
100
AcDb2dVertex
 10
-70.7116686513
 20
144.1907799101
 30
0.0
  0
VERTEX
  5
5B5
330
300
100
AcDbEntity
  8
DV1_AUTO_-_HIDE
  6
CONTINUOUS
 62
     7
100
AcDbVertex
100
AcDb2dVertex
 10
-70.7650019833
 20
143.8707799182
 30
0.0
  0
VERTEX
  5
5B6
330
300
100
AcDbEntity
  8
DV1_AUTO_-_HIDE
  6
CONTINUOUS
 62
     7
100
AcDbVertex
100
AcDb2dVertex
 10
-70.8183353152
 20
144.1907799101
 30
0.0
  0
SEQEND
  5
5B7
330
300
100
AcDbEntity
  8
DV1_AUTO_-_HIDE
  6
CONTINUOUS
 62
     7
  0
LINE
  5
301
330
65
100
AcDbEntity
  8
DV1_AUTO_-_HIDE
  6
CONTINUOUS
 62
     7
100
AcDbLine
 10
37.0925899084
 20
259.1107815966
 30
0.0
 11
-70.9250019792
 21
259.1107815966
 31
0.0
  0
LINE
  5
302
330
65
100
AcDbEntity
  8
DV1_AUTO_-_HIDE
  6
CONTINUOUS
 62
     7
100
AcDbLine
 10
37.0925899084
 20
143.8707815966
 30
0.0
 11
-70.9250019792
 21
143.8707815966
 31
0.0
  0
LINE
  5
303
330
65
100
AcDbEntity
  8
DV1_AUTO_-_HIDE
  6
CONTINUOUS
 62
     7
100
AcDbLine
 10
-70.7650019833
 20
259.1107815966
 30
0.0
 11
-70.7650019833
 21
143.8707799182
 31
0.0
  0
TEXT
  5
304
330
65
100
AcDbEntity
  8
DV1_AUTO_-_HIDE
  6
CONTINUOUS
 62
     7
100
AcDbText
 10
-70.8450019833
 20
200.8566344159
 30
0.0
 40
0.32
  1
1152.4
 50
90.0
  7
SEACAD_SEANSI_TTF
 11
-71.1650019833
 21
200.8566344159
 31
0.0
100
AcDbText
 73
     3
  0
POLYLINE
  5
305
330
65
100
AcDbEntity
  8
DV1_AUTO_-_HIDE
  6
CONTINUOUS
 62
     7
100
AcDb2dPolyline
 66
     1
 10
0.0
 20
0.0
 30
0.0
  0
VERTEX
  5
5B8
330
305
100
AcDbEntity
  8
DV1_AUTO_-_HIDE
  6
CONTINUOUS
 62
     7
100
AcDbVertex
100
AcDb2dVertex
 10
137.3505899133
 20
278.7640025821
 30
0.0
  0
VERTEX
  5
5B9
330
305
100
AcDbEntity
  8
DV1_AUTO_-_HIDE
  6
CONTINUOUS
 62
     7
100
AcDbVertex
100
AcDb2dVertex
 10
137.6705899052
 20
278.8173359141
 30
0.0
  0
VERTEX
  5
5BA
330
305
100
AcDbEntity
  8
DV1_AUTO_-_HIDE
  6
CONTINUOUS
 62
     7
100
AcDbVertex
100
AcDb2dVertex
 10
137.3505899133
 20
278.8706692461
 30
0.0
  0
SEQEND
  5
5BB
330
305
100
AcDbEntity
  8
DV1_AUTO_-_HIDE
  6
CONTINUOUS
 62
     7
  0
POLYLINE
  5
306
330
65
100
AcDbEntity
  8
DV1_AUTO_-_HIDE
  6
CONTINUOUS
 62
     7
100
AcDb2dPolyline
 66
     1
 10
0.0
 20
0.0
 30
0.0
  0
VERTEX
  5
5BC
330
306
100
AcDbEntity
  8
DV1_AUTO_-_HIDE
  6
CONTINUOUS
 62
     7
100
AcDbVertex
100
AcDb2dVertex
 10
107.990588705
 20
278.7640025821
 30
0.0
  0
VERTEX
  5
5BD
330
306
100
AcDbEntity
  8
DV1_AUTO_-_HIDE
  6
CONTINUOUS
 62
     7
100
AcDbVertex
100
AcDb2dVertex
 10
107.6705887131
 20
278.8173359141
 30
0.0
  0
VERTEX
  5
5BE
330
306
100
AcDbEntity
  8
DV1_AUTO_-_HIDE
  6
CONTINUOUS
 62
     7
100
AcDbVertex
100
AcDb2dVertex
 10
107.990588705
 20
278.8706692461
 30
0.0
  0
SEQEND
  5
5BF
330
306
100
AcDbEntity
  8
DV1_AUTO_-_HIDE
  6
CONTINUOUS
 62
     7
  0
LINE
  5
307
330
65
100
AcDbEntity
  8
DV1_AUTO_-_HIDE
  6
CONTINUOUS
 62
     7
100
AcDbLine
 10
137.6705899052
 20
261.6387815934
 30
0.0
 11
137.6705899052
 21
278.9773359101
 31
0.0
  0
LINE
  5
308
330
65
100
AcDbEntity
  8
DV1_AUTO_-_HIDE
  6
CONTINUOUS
 62
     7
100
AcDbLine
 10
107.6705899052
 20
217.1287815934
 30
0.0
 11
107.6705899052
 21
278.9773359101
 31
0.0
  0
LINE
  5
309
330
65
100
AcDbEntity
  8
DV1_AUTO_-_HIDE
  6
CONTINUOUS
 62
     7
100
AcDbLine
 10
137.6705899052
 20
278.8173359141
 30
0.0
 11
107.6705887131
 21
278.8173359141
 31
0.0
  0
TEXT
  5
30A
330
65
100
AcDbEntity
  8
DV1_AUTO_-_HIDE
  6
CONTINUOUS
 62
     7
100
AcDbText
 10
122.3193697969
 20
278.8973359141
 30
0.0
 40
0.32
  1
300
  7
SEACAD_SEANSI_TTF
 11
122.3193697969
 21
279.2173359141
 31
0.0
100
AcDbText
 73
     3
  0
POLYLINE
  5
30B
330
65
100
AcDbEntity
  8
DV1_AUTO_-_HIDE
  6
CONTINUOUS
 62
     7
100
AcDb2dPolyline
 66
     1
 10
0.0
 20
0.0
 30
0.0
  0
VERTEX
  5
5C0
330
30B
100
AcDbEntity
  8
DV1_AUTO_-_HIDE
  6
CONTINUOUS
 62
     7
100
AcDbVertex
100
AcDb2dVertex
 10
23.9841463993
 20
261.1907816047
 30
0.0
  0
VERTEX
  5
5C1
330
30B
100
AcDbEntity
  8
DV1_AUTO_-_HIDE
  6
CONTINUOUS
 62
     7
100
AcDbVertex
100
AcDb2dVertex
 10
23.9308130674
 20
261.5107815966
 30
0.0
  0
VERTEX
  5
5C2
330
30B
100
AcDbEntity
  8
DV1_AUTO_-_HIDE
  6
CONTINUOUS
 62
     7
100
AcDbVertex
100
AcDb2dVertex
 10
23.8774797354
 20
261.1907816047
 30
0.0
  0
SEQEND
  5
5C3
330
30B
100
AcDbEntity
  8
DV1_AUTO_-_HIDE
  6
CONTINUOUS
 62
     7
  0
POLYLINE
  5
30C
330
65
100
AcDbEntity
  8
DV1_AUTO_-_HIDE
  6
CONTINUOUS
 62
     7
100
AcDb2dPolyline
 66
     1
 10
0.0
 20
0.0
 30
0.0
  0
VERTEX
  5
5C4
330
30C
100
AcDbEntity
  8
DV1_AUTO_-_HIDE
  6
CONTINUOUS
 62
     7
100
AcDbVertex
100
AcDb2dVertex
 10
23.9841463993
 20
217.3207806444
 30
0.0
  0
VERTEX
  5
5C5
330
30C
100
AcDbEntity
  8
DV1_AUTO_-_HIDE
  6
CONTINUOUS
 62
     7
100
AcDbVertex
100
AcDb2dVertex
 10
23.9308130674
 20
217.0007806525
 30
0.0
  0
VERTEX
  5
5C6
330
30C
100
AcDbEntity
  8
DV1_AUTO_-_HIDE
  6
CONTINUOUS
 62
     7
100
AcDbVertex
100
AcDb2dVertex
 10
23.8774797354
 20
217.3207806444
 30
0.0
  0
SEQEND
  5
5C7
330
30C
100
AcDbEntity
  8
DV1_AUTO_-_HIDE
  6
CONTINUOUS
 62
     7
  0
LINE
  5
30D
330
65
100
AcDbEntity
  8
DV1_AUTO_-_HIDE
  6
CONTINUOUS
 62
     7
100
AcDbLine
 10
39.4925899084
 20
261.5107815966
 30
0.0
 11
23.7708130714
 21
261.5107815966
 31
0.0
  0
LINE
  5
30E
330
65
100
AcDbEntity
  8
DV1_AUTO_-_HIDE
  6
CONTINUOUS
 62
     7
100
AcDbLine
 10
107.5425899084
 20
217.0007815966
 30
0.0
 11
23.7708130714
 21
217.0007815966
 31
0.0
  0
LINE
  5
30F
330
65
100
AcDbEntity
  8
DV1_AUTO_-_HIDE
  6
CONTINUOUS
 62
     7
100
AcDbLine
 10
23.9308130674
 20
261.5107815966
 30
0.0
 11
23.9308130674
 21
217.0007806525
 31
0.0
  0
TEXT
  5
310
330
65
100
AcDbEntity
  8
DV1_AUTO_-_HIDE
  6
CONTINUOUS
 62
     7
100
AcDbText
 10
23.8508130674
 20
238.7387079538
 30
0.0
 40
0.32
  1
445.1
 50
90.0
  7
SEACAD_SEANSI_TTF
 11
23.5308130674
 21
238.7387079538
 31
0.0
100
AcDbText
 73
     3
  0
LINE
  5
312
330
65
100
AcDbEntity
  8
DV1_DEFAULT
  6
CONTINUOUS
 62
     7
100
AcDbLine
 10
41.2705899052
 20
146.5307815966
 30
0.0
 11
234.0705899052
 21
146.5307815966
 31
0.0
  0
LINE
  5
313
330
65
100
AcDbEntity
  8
DV1_DEFAULT
  6
CONTINUOUS
 62
     7
100
AcDbLine
 10
234.0705899052
 20
146.5307815966
 30
0.0
 11
234.0705899052
 21
257.4607815966
 31
0.0
  0
LINE
  5
314
330
65
100
AcDbEntity
  8
DV1_DEFAULT
  6
CONTINUOUS
 62
     7
100
AcDbLine
 10
234.0705899052
 20
257.4607815966
 30
0.0
 11
41.2705899052
 21
257.4607815966
 31
0.0
  0
LINE
  5
315
330
65
100
AcDbEntity
  8
DV1_DEFAULT
  6
CONTINUOUS
 62
     7
100
AcDbLine
 10
41.2705899052
 20
257.4607815966
 30
0.0
 11
41.2705899052
 21
146.5307815966
 31
0.0
  0
POLYLINE
  5
316
330
65
100
AcDbEntity
  8
DV1_AUTO_-_HIDE
  6
CONTINUOUS
 62
     7
100
AcDb2dPolyline
 66
     1
 10
0.0
 20
0.0
 30
0.0
  0
VERTEX
  5
5C8
330
316
100
AcDbEntity
  8
DV1_AUTO_-_HIDE
  6
CONTINUOUS
 62
     7
100
AcDbVertex
100
AcDb2dVertex
 10
24.1296908925
 20
257.7807815886
 30
0.0
  0
VERTEX
  5
5C9
330
316
100
AcDbEntity
  8
DV1_AUTO_-_HIDE
  6
CONTINUOUS
 62
     7
100
AcDbVertex
100
AcDb2dVertex
 10
24.0763575606
 20
257.4607815966
 30
0.0
  0
VERTEX
  5
5CA
330
316
100
AcDbEntity
  8
DV1_AUTO_-_HIDE
  6
CONTINUOUS
 62
     7
100
AcDbVertex
100
AcDb2dVertex
 10
24.0230242286
 20
257.7807815886
 30
0.0
  0
SEQEND
  5
5CB
330
316
100
AcDbEntity
  8
DV1_AUTO_-_HIDE
  6
CONTINUOUS
 62
     7
  0
POLYLINE
  5
317
330
65
100
AcDbEntity
  8
DV1_AUTO_-_HIDE
  6
CONTINUOUS
 62
     7
100
AcDb2dPolyline
 66
     1
 10
0.0
 20
0.0
 30
0.0
  0
VERTEX
  5
5CC
330
317
100
AcDbEntity
  8
DV1_AUTO_-_HIDE
  6
CONTINUOUS
 62
     7
100
AcDbVertex
100
AcDb2dVertex
 10
24.1296908925
 20
261.1907816047
 30
0.0
  0
VERTEX
  5
5CD
330
317
100
AcDbEntity
  8
DV1_AUTO_-_HIDE
  6
CONTINUOUS
 62
     7
100
AcDbVertex
100
AcDb2dVertex
 10
24.0763575606
 20
261.5107815966
 30
0.0
  0
VERTEX
  5
5CE
330
317
100
AcDbEntity
  8
DV1_AUTO_-_HIDE
  6
CONTINUOUS
 62
     7
100
AcDbVertex
100
AcDb2dVertex
 10
24.0230242286
 20
261.1907816047
 30
0.0
  0
SEQEND
  5
5CF
330
317
100
AcDbEntity
  8
DV1_AUTO_-_HIDE
  6
CONTINUOUS
 62
     7
  0
LINE
  5
318
330
65
100
AcDbEntity
  8
DV1_AUTO_-_HIDE
  6
CONTINUOUS
 62
     7
100
AcDbLine
 10
41.1425899084
 20
257.4607815966
 30
0.0
 11
23.9163575646
 21
257.4607815966
 31
0.0
  0
LINE
  5
319
330
65
100
AcDbEntity
  8
DV1_AUTO_-_HIDE
  6
CONTINUOUS
 62
     7
100
AcDbLine
 10
39.4925899084
 20
261.5107815966
 30
0.0
 11
23.9163575646
 21
261.5107815966
 31
0.0
  0
LINE
  5
31A
330
65
100
AcDbEntity
  8
DV1_AUTO_-_HIDE
  6
CONTINUOUS
 62
     7
100
AcDbLine
 10
24.0763575606
 20
257.4607815966
 30
0.0
 11
24.0763575606
 21
279.689158164
 31
0.0
  0
TEXT
  5
31B
330
65
100
AcDbEntity
  8
DV1_AUTO_-_HIDE
  6
CONTINUOUS
 62
     7
100
AcDbText
 10
23.9963575606
 20
278.7771578173
 30
0.0
 40
0.32
  1
40.5
 50
90.0
  7
SEACAD_SEANSI_TTF
 11
23.6763575606
 21
278.7771578173
 31
0.0
100
AcDbText
 73
     3
  0
POLYLINE
  5
31C
330
65
100
AcDbEntity
  8
DV1_AUTO_-_HIDE
  6
CONTINUOUS
 62
     7
100
AcDb2dPolyline
 66
     1
 10
0.0
 20
0.0
 30
0.0
  0
VERTEX
  5
5D0
330
31C
100
AcDbEntity
  8
DV1_AUTO_-_HIDE
  6
CONTINUOUS
 62
     7
100
AcDbVertex
100
AcDb2dVertex
 10
37.5405898971
 20
210.1684591536
 30
0.0
  0
VERTEX
  5
5D1
330
31C
100
AcDbEntity
  8
DV1_AUTO_-_HIDE
  6
CONTINUOUS
 62
     7
100
AcDbVertex
100
AcDb2dVertex
 10
37.2205899052
 20
210.1151258216
 30
0.0
  0
VERTEX
  5
5D2
330
31C
100
AcDbEntity
  8
DV1_AUTO_-_HIDE
  6
CONTINUOUS
 62
     7
100
AcDbVertex
100
AcDb2dVertex
 10
37.5405898971
 20
210.0617924896
 30
0.0
  0
SEQEND
  5
5D3
330
31C
100
AcDbEntity
  8
DV1_AUTO_-_HIDE
  6
CONTINUOUS
 62
     7
  0
POLYLINE
  5
31D
330
65
100
AcDbEntity
  8
DV1_AUTO_-_HIDE
  6
CONTINUOUS
 62
     7
100
AcDb2dPolyline
 66
     1
 10
0.0
 20
0.0
 30
0.0
  0
VERTEX
  5
5D4
330
31D
100
AcDbEntity
  8
DV1_AUTO_-_HIDE
  6
CONTINUOUS
 62
     7
100
AcDbVertex
100
AcDb2dVertex
 10
40.9505899133
 20
210.1684591536
 30
0.0
  0
VERTEX
  5
5D5
330
31D
100
AcDbEntity
  8
DV1_AUTO_-_HIDE
  6
CONTINUOUS
 62
     7
100
AcDbVertex
100
AcDb2dVertex
 10
41.2705899052
 20
210.1151258216
 30
0.0
  0
VERTEX
  5
5D6
330
31D
100
AcDbEntity
  8
DV1_AUTO_-_HIDE
  6
CONTINUOUS
 62
     7
100
AcDbVertex
100
AcDb2dVertex
 10
40.9505899133
 20
210.0617924896
 30
0.0
  0
SEQEND
  5
5D7
330
31D
100
AcDbEntity
  8
DV1_AUTO_-_HIDE
  6
CONTINUOUS
 62
     7
  0
LINE
  5
31E
330
65
100
AcDbEntity
  8
DV1_AUTO_-_HIDE
  6
CONTINUOUS
 62
     7
100
AcDbLine
 10
37.2205899052
 20
210.1151258216
 30
0.0
 11
65.6978503756
 21
210.1151258216
 31
0.0
  0
TEXT
  5
31F
330
65
100
AcDbEntity
  8
DV1_AUTO_-_HIDE
  6
CONTINUOUS
 62
     7
100
AcDbText
 10
64.7858485388
 20
210.1951258216
 30
0.0
 40
0.32
  1
40.5
  7
SEACAD_SEANSI_TTF
 11
64.7858485388
 21
210.5151258216
 31
0.0
100
AcDbText
 73
     3
  0
POLYLINE
  5
320
330
65
100
AcDbEntity
  8
DV1_AUTO_-_HIDE
  6
CONTINUOUS
 62
     7
100
AcDb2dPolyline
 66
     1
 10
0.0
 20
0.0
 30
0.0
  0
VERTEX
  5
5D8
330
320
100
AcDbEntity
  8
DV1_AUTO_-_HIDE
  6
CONTINUOUS
 62
     7
100
AcDbVertex
100
AcDb2dVertex
 10
237.8005899133
 20
286.0268112484
 30
0.0
  0
VERTEX
  5
5D9
330
320
100
AcDbEntity
  8
DV1_AUTO_-_HIDE
  6
CONTINUOUS
 62
     7
100
AcDbVertex
100
AcDb2dVertex
 10
238.1205899052
 20
286.0801445803
 30
0.0
  0
VERTEX
  5
5DA
330
320
100
AcDbEntity
  8
DV1_AUTO_-_HIDE
  6
CONTINUOUS
 62
     7
100
AcDbVertex
100
AcDb2dVertex
 10
237.8005899133
 20
286.1334779123
 30
0.0
  0
SEQEND
  5
5DB
330
320
100
AcDbEntity
  8
DV1_AUTO_-_HIDE
  6
CONTINUOUS
 62
     7
  0
POLYLINE
  5
321
330
65
100
AcDbEntity
  8
DV1_AUTO_-_HIDE
  6
CONTINUOUS
 62
     7
100
AcDb2dPolyline
 66
     1
 10
0.0
 20
0.0
 30
0.0
  0
VERTEX
  5
5DC
330
321
100
AcDbEntity
  8
DV1_AUTO_-_HIDE
  6
CONTINUOUS
 62
     7
100
AcDbVertex
100
AcDb2dVertex
 10
234.3905898971
 20
286.0268112484
 30
0.0
  0
VERTEX
  5
5DD
330
321
100
AcDbEntity
  8
DV1_AUTO_-_HIDE
  6
CONTINUOUS
 62
     7
100
AcDbVertex
100
AcDb2dVertex
 10
234.0705899052
 20
286.0801445803
 30
0.0
  0
VERTEX
  5
5DE
330
321
100
AcDbEntity
  8
DV1_AUTO_-_HIDE
  6
CONTINUOUS
 62
     7
100
AcDbVertex
100
AcDb2dVertex
 10
234.3905898971
 20
286.1334779123
 30
0.0
  0
SEQEND
  5
5DF
330
321
100
AcDbEntity
  8
DV1_AUTO_-_HIDE
  6
CONTINUOUS
 62
     7
  0
LINE
  5
322
330
65
100
AcDbEntity
  8
DV1_AUTO_-_HIDE
  6
CONTINUOUS
 62
     7
100
AcDbLine
 10
238.1205899052
 20
259.2387782893
 30
0.0
 11
238.1205899052
 21
286.2401445763
 31
0.0
  0
LINE
  5
323
330
65
100
AcDbEntity
  8
DV1_AUTO_-_HIDE
  6
CONTINUOUS
 62
     7
100
AcDbLine
 10
234.0705899052
 20
257.5887783465
 30
0.0
 11
234.0705899052
 21
286.2401445763
 31
0.0
  0
LINE
  5
324
330
65
100
AcDbEntity
  8
DV1_AUTO_-_HIDE
  6
CONTINUOUS
 62
     7
100
AcDbLine
 10
238.1205899052
 20
286.0801445803
 30
0.0
 11
203.4343016676
 21
286.0801445803
 31
0.0
  0
TEXT
  5
325
330
65
100
AcDbEntity
  8
DV1_AUTO_-_HIDE
  6
CONTINUOUS
 62
     7
100
AcDbText
 10
203.5463035044
 20
286.1601445803
 30
0.0
 40
0.32
  1
40.5
  7
SEACAD_SEANSI_TTF
 11
203.5463035044
 21
286.4801445803
 31
0.0
100
AcDbText
 73
     3
  0
POLYLINE
  5
326
330
65
100
AcDbEntity
  8
DV1_AUTO_-_HIDE
  6
CONTINUOUS
 62
     7
100
AcDb2dPolyline
 66
     1
 10
0.0
 20
0.0
 30
0.0
  0
VERTEX
  5
5E0
330
326
100
AcDbEntity
  8
DV1_AUTO_-_HIDE
  6
CONTINUOUS
 62
     7
100
AcDbVertex
100
AcDb2dVertex
 10
269.3593005929
 20
141.7907815886
 30
0.0
  0
VERTEX
  5
5E1
330
326
100
AcDbEntity
  8
DV1_AUTO_-_HIDE
  6
CONTINUOUS
 62
     7
100
AcDbVertex
100
AcDb2dVertex
 10
269.4126339249
 20
141.4707815966
 30
0.0
  0
VERTEX
  5
5E2
330
326
100
AcDbEntity
  8
DV1_AUTO_-_HIDE
  6
CONTINUOUS
 62
     7
100
AcDbVertex
100
AcDb2dVertex
 10
269.4659672569
 20
141.7907815886
 30
0.0
  0
SEQEND
  5
5E3
330
326
100
AcDbEntity
  8
DV1_AUTO_-_HIDE
  6
CONTINUOUS
 62
     7
  0
POLYLINE
  5
327
330
65
100
AcDbEntity
  8
DV1_AUTO_-_HIDE
  6
CONTINUOUS
 62
     7
100
AcDb2dPolyline
 66
     1
 10
0.0
 20
0.0
 30
0.0
  0
VERTEX
  5
5E4
330
327
100
AcDbEntity
  8
DV1_AUTO_-_HIDE
  6
CONTINUOUS
 62
     7
100
AcDbVertex
100
AcDb2dVertex
 10
269.3593005929
 20
146.2107815773
 30
0.0
  0
VERTEX
  5
5E5
330
327
100
AcDbEntity
  8
DV1_AUTO_-_HIDE
  6
CONTINUOUS
 62
     7
100
AcDbVertex
100
AcDb2dVertex
 10
269.4126339249
 20
146.5307815692
 30
0.0
  0
VERTEX
  5
5E6
330
327
100
AcDbEntity
  8
DV1_AUTO_-_HIDE
  6
CONTINUOUS
 62
     7
100
AcDbVertex
100
AcDb2dVertex
 10
269.4659672569
 20
146.2107815773
 30
0.0
  0
SEQEND
  5
5E7
330
327
100
AcDbEntity
  8
DV1_AUTO_-_HIDE
  6
CONTINUOUS
 62
     7
  0
LINE
  5
328
330
65
100
AcDbEntity
  8
DV1_AUTO_-_HIDE
  6
CONTINUOUS
 62
     7
100
AcDbLine
 10
235.8485899019
 20
141.4707815966
 30
0.0
 11
269.5726339208
 21
141.4707815966
 31
0.0
  0
LINE
  5
329
330
65
100
AcDbEntity
  8
DV1_AUTO_-_HIDE
  6
CONTINUOUS
 62
     7
100
AcDbLine
 10
234.1985899019
 20
146.5307815966
 30
0.0
 11
269.5726339208
 21
146.5307815966
 31
0.0
  0
LINE
  5
32A
330
65
100
AcDbEntity
  8
DV1_AUTO_-_HIDE
  6
CONTINUOUS
 62
     7
100
AcDbLine
 10
269.4126339249
 20
141.4707815966
 30
0.0
 11
269.4126339249
 21
146.5307815692
 31
0.0
  0
TEXT
  5
32B
330
65
100
AcDbEntity
  8
DV1_AUTO_-_HIDE
  6
CONTINUOUS
 62
     7
100
AcDbText
 10
269.3326339249
 20
143.6007815829
 30
0.0
 40
0.32
  1
50.6
 50
90.0
  7
SEACAD_SEANSI_TTF
 11
269.0126339249
 21
143.6007815829
 31
0.0
100
AcDbText
 73
     3
  0
LINE
  5
32C
330
65
100
AcDbEntity
  8
DV1_DEFAULT
  6
CONTINUOUS
 62
     7
100
AcDbLine
 10
41.2705899052
 20
147.4807815966
 30
0.0
 11
234.0705899052
 21
147.4807815966
 31
0.0
  0
POLYLINE
  5
32D
330
65
100
AcDbEntity
  8
DV1_AUTO_-_HIDE
  6
CONTINUOUS
 62
     7
100
AcDb2dPolyline
 66
     1
 10
0.0
 20
0.0
 30
0.0
  0
VERTEX
  5
5E8
330
32D
100
AcDbEntity
  8
DV1_AUTO_-_HIDE
  6
CONTINUOUS
 62
     7
100
AcDbVertex
100
AcDb2dVertex
 10
22.8689900707
 20
146.8507815886
 30
0.0
  0
VERTEX
  5
5E9
330
32D
100
AcDbEntity
  8
DV1_AUTO_-_HIDE
  6
CONTINUOUS
 62
     7
100
AcDbVertex
100
AcDb2dVertex
 10
22.8156567387
 20
146.5307815966
 30
0.0
  0
VERTEX
  5
5EA
330
32D
100
AcDbEntity
  8
DV1_AUTO_-_HIDE
  6
CONTINUOUS
 62
     7
100
AcDbVertex
100
AcDb2dVertex
 10
22.7623234067
 20
146.8507815886
 30
0.0
  0
SEQEND
  5
5EB
330
32D
100
AcDbEntity
  8
DV1_AUTO_-_HIDE
  6
CONTINUOUS
 62
     7
  0
POLYLINE
  5
32E
330
65
100
AcDbEntity
  8
DV1_AUTO_-_HIDE
  6
CONTINUOUS
 62
     7
100
AcDb2dPolyline
 66
     1
 10
0.0
 20
0.0
 30
0.0
  0
VERTEX
  5
5EC
330
32E
100
AcDbEntity
  8
DV1_AUTO_-_HIDE
  6
CONTINUOUS
 62
     7
100
AcDbVertex
100
AcDb2dVertex
 10
22.8689900707
 20
147.1607815742
 30
0.0
  0
VERTEX
  5
5ED
330
32E
100
AcDbEntity
  8
DV1_AUTO_-_HIDE
  6
CONTINUOUS
 62
     7
100
AcDbVertex
100
AcDb2dVertex
 10
22.8156567387
 20
147.4807815661
 30
0.0
  0
VERTEX
  5
5EE
330
32E
100
AcDbEntity
  8
DV1_AUTO_-_HIDE
  6
CONTINUOUS
 62
     7
100
AcDbVertex
100
AcDb2dVertex
 10
22.7623234067
 20
147.1607815742
 30
0.0
  0
SEQEND
  5
5EF
330
32E
100
AcDbEntity
  8
DV1_AUTO_-_HIDE
  6
CONTINUOUS
 62
     7
  0
LINE
  5
32F
330
65
100
AcDbEntity
  8
DV1_AUTO_-_HIDE
  6
CONTINUOUS
 62
     7
100
AcDbLine
 10
41.1425899084
 20
146.5307815966
 30
0.0
 11
22.6556567427
 21
146.5307815966
 31
0.0
  0
LINE
  5
330
330
65
100
AcDbEntity
  8
DV1_AUTO_-_HIDE
  6
CONTINUOUS
 62
     7
100
AcDbLine
 10
41.1425899084
 20
147.4807815966
 30
0.0
 11
22.6556567427
 21
147.4807815966
 31
0.0
  0
LINE
  5
331
330
65
100
AcDbEntity
  8
DV1_AUTO_-_HIDE
  6
CONTINUOUS
 62
     7
100
AcDbLine
 10
22.8156567387
 20
146.5307815966
 30
0.0
 11
22.8156567387
 21
147.4807815661
 31
0.0
  0
TEXT
  5
332
330
65
100
AcDbEntity
  8
DV1_AUTO_-_HIDE
  6
CONTINUOUS
 62
     7
100
AcDbText
 10
22.7356567387
 20
146.7228547521
 30
0.0
 40
0.32
  1
9.5
 50
90.0
  7
SEACAD_SEANSI_TTF
 11
22.4156567387
 21
146.7228547521
 31
0.0
100
AcDbText
 73
     3
  0
ARC
  5
333
330
65
100
AcDbEntity
  8
DV1_DEFAULT
  6
CONTINUOUS
 62
     7
100
AcDbCircle
 10
39.6205899052
 20
143.8707815966
 30
0.0
 40
2.4
100
AcDbArc
 50
180.0
 51
270.0
  0
ARC
  5
334
330
65
100
AcDbEntity
  8
DV1_DEFAULT
  6
CONTINUOUS
 62
     7
100
AcDbCircle
 10
39.6205899052
 20
259.1107815966
 30
0.0
 40
2.4
100
AcDbArc
 50
90.0
 51
180.0
  0
ARC
  5
335
330
65
100
AcDbEntity
  8
DV1_DEFAULT
  6
CONTINUOUS
 62
     7
100
AcDbCircle
 10
235.7205899052
 20
259.1107815966
 30
0.0
 40
2.4
100
AcDbArc
 50
0.0
 51
90.0
  0
ARC
  5
336
330
65
100
AcDbEntity
  8
DV1_DEFAULT
  6
CONTINUOUS
 62
     7
100
AcDbCircle
 10
235.7205899052
 20
143.8707815966
 30
0.0
 40
2.4
100
AcDbArc
 50
270.0
 51
0.0
  0
LINE
  5
337
330
65
100
AcDbEntity
  8
DV1_AUTO_-_HIDE
  6
CONTINUOUS
 62
     7
100
AcDbLine
 10
235.7205899052
 20
143.8707815966
 30
0.0
 11
243.6200429605
 21
138.0718194648
 31
0.0
  0
POLYLINE
  5
338
330
65
100
AcDbEntity
  8
DV1_AUTO_-_HIDE
  6
CONTINUOUS
 62
     7
100
AcDb2dPolyline
 66
     1
 10
0.0
 20
0.0
 30
0.0
  0
VERTEX
  5
5F0
330
338
100
AcDbEntity
  8
DV1_AUTO_-_HIDE
  6
CONTINUOUS
 62
     7
100
AcDbVertex
100
AcDb2dVertex
 10
237.8816523361
 20
142.2181916385
 30
0.0
  0
VERTEX
  5
5F1
330
338
100
AcDbEntity
  8
DV1_AUTO_-_HIDE
  6
CONTINUOUS
 62
     7
100
AcDbVertex
100
AcDb2dVertex
 10
237.6552574073
 20
142.4505486382
 30
0.0
  0
VERTEX
  5
5F2
330
338
100
AcDbEntity
  8
DV1_AUTO_-_HIDE
  6
CONTINUOUS
 62
     7
100
AcDbVertex
100
AcDb2dVertex
 10
237.9447737994
 20
142.3041768586
 30
0.0
  0
SEQEND
  5
5F3
330
338
100
AcDbEntity
  8
DV1_AUTO_-_HIDE
  6
CONTINUOUS
 62
     7
  0
LINE
  5
339
330
65
100
AcDbEntity
  8
DV1_AUTO_-_HIDE
  6
CONTINUOUS
 62
     7
100
AcDbLine
 10
243.6200429605
 20
138.0718194648
 30
0.0
 11
244.6370284924
 21
138.0718194648
 31
0.0
  0
TEXT
  5
33A
330
65
100
AcDbEntity
  8
DV1_AUTO_-_HIDE
  6
CONTINUOUS
 62
     7
100
AcDbText
 10
243.7320429605
 20
138.1518194648
 30
0.0
 40
0.32
  1
R
  7
SEACAD_SEANSI_TTF
 11
243.7320429605
 21
138.4718194648
 31
0.0
100
AcDbText
 73
     3
  0
TEXT
  5
33B
330
65
100
AcDbEntity
  8
DV1_AUTO_-_HIDE
  6
CONTINUOUS
 62
     7
100
AcDbText
 10
244.0567258873
 20
138.1518194648
 30
0.0
 40
0.32
  1
24
  7
SEACAD_SEANSI_TTF
 11
244.0567258873
 21
138.4718194648
 31
0.0
100
AcDbText
 73
     3
  0
LINE
  5
33C
330
65
100
AcDbEntity
  8
DV1_DEFAULT
  6
CONTINUOUS
 62
     7
100
AcDbLine
 10
93.1005899052
 20
139.0440404677
 30
0.0
 11
93.1005899052
 21
141.4707815966
 31
0.0
  0
LINE
  5
33D
330
65
100
AcDbEntity
  8
DV1_DEFAULT
  6
CONTINUOUS
 62
     7
100
AcDbLine
 10
98.3005899052
 20
138.6542502853
 30
0.0
 11
98.3005899052
 21
141.4707815966
 31
0.0
  0
LINE
  5
33E
330
65
100
AcDbEntity
  8
DV1_DEFAULT
  6
CONTINUOUS
 62
     7
100
AcDbLine
 10
177.0405899052
 20
138.0508151249
 30
0.0
 11
177.0405899052
 21
141.4707815966
 31
0.0
  0
LINE
  5
33F
330
65
100
AcDbEntity
  8
DV1_DEFAULT
  6
CONTINUOUS
 62
     7
100
AcDbLine
 10
182.2405899052
 20
136.8970088043
 30
0.0
 11
182.2405899052
 21
141.4707815966
 31
0.0
  0
ENDBLK
  5
341
330
65
100
AcDbEntity
  8
0
100
AcDbBlockEnd
  0
BLOCK
  5
55A
330
342
100
AcDbEntity
  8
0
100
AcDbBlockBegin
  2
SE1
 70
     0
 10
0.0
 20
0.0
 30
0.0
  3
SE1
  1

  0
LINE
  5
345
330
342
100
AcDbEntity
  8
ﾐﾗｰIWBブラケット16080
  6
CONTINUOUS
 62
     7
100
AcDbLine
 10
342.9176860838
 20
199.5007815966
 30
0.0
 11
342.9676860838
 21
199.5007815966
 31
0.0
  0
LINE
  5
346
330
342
100
AcDbEntity
  8
ﾐﾗｰIWBブラケット16080
  6
CONTINUOUS
 62
     7
100
AcDbLine
 10
342.9676860838
 20
199.5007815966
 30
0.0
 11
342.9676860838
 21
198.7007815966
 31
0.0
  0
LINE
  5
347
330
342
100
AcDbEntity
  8
ﾐﾗｰIWBブラケット16080
  6
CONTINUOUS
 62
     7
100
AcDbLine
 10
342.9676860838
 20
198.7007815966
 30
0.0
 11
343.1959155086
 21
197.8490177876
 31
0.0
  0
LINE
  5
348
330
342
100
AcDbEntity
  8
ﾐﾗｰIWBブラケット16080
  6
CONTINUOUS
 62
     7
100
AcDbLine
 10
340.4776860838
 20
171.0007815966
 30
0.0
 11
342.7176860838
 21
171.0007815966
 31
0.0
  0
LINE
  5
349
330
342
100
AcDbEntity
  8
ﾐﾗｰIWBブラケット16080
  6
CONTINUOUS
 62
     7
100
AcDbLine
 10
340.2476860838
 20
171.0007815966
 30
0.0
 11
340.2476860838
 21
219.0007815966
 31
0.0
  0
LINE
  5
34A
330
342
100
AcDbEntity
  8
ﾐﾗｰIWBブラケット16080
  6
CONTINUOUS
 62
     7
100
AcDbLine
 10
340.2476860838
 20
219.0007815966
 30
0.0
 11
340.4776860838
 21
219.0007815966
 31
0.0
  0
LINE
  5
34B
330
342
100
AcDbEntity
  8
ﾐﾗｰIWBブラケット16080
  6
CONTINUOUS
 62
     7
100
AcDbLine
 10
340.4776860838
 20
171.0007815966
 30
0.0
 11
340.2476860838
 21
171.0007815966
 31
0.0
  0
LINE
  5
34C
330
342
100
AcDbEntity
  8
ﾐﾗｰIWBブラケット16080
  6
CONTINUOUS
 62
     7
100
AcDbLine
 10
345.0100899603
 20
203.3344107134
 30
0.0
 11
342.3205401447
 21
218.5876056855
 31
0.0
  0
LINE
  5
34D
330
342
100
AcDbEntity
  8
ﾐﾗｰIWBブラケット16080
  6
CONTINUOUS
 62
     7
100
AcDbLine
 10
341.8281362682
 20
219.0007815966
 30
0.0
 11
340.4776860838
 21
219.0007815966
 31
0.0
  0
LINE
  5
34E
330
342
100
AcDbEntity
  8
ﾐﾗｰIWBブラケット16080
  6
CONTINUOUS
 62
     7
100
AcDbLine
 10
345.0176860838
 20
198.2007815966
 30
0.0
 11
345.0176860838
 21
203.2475866245
 31
0.0
  0
ARC
  5
34F
330
342
100
AcDbEntity
  8
ﾐﾗｰIWBブラケット16080
  6
CONTINUOUS
 62
     7
100
AcDbCircle
 10
344.5176860838
 20
198.2007815966
 30
0.0
 40
0.5000000000000004
100
AcDbArc
 50
270.0
 51
0.0
  0
ARC
  5
350
330
342
100
AcDbEntity
  8
ﾐﾗｰIWBブラケット16080
  6
CONTINUOUS
 62
     7
100
AcDbCircle
 10
341.8281362682
 20
218.5007815966
 30
0.0
 40
0.5000000000000117
100
AcDbArc
 50
10.0
 51
90.0
  0
ARC
  5
351
330
342
100
AcDbEntity
  8
ﾐﾗｰIWBブラケット16080
  6
CONTINUOUS
 62
     7
100
AcDbCircle
 10
344.5176860838
 20
203.2475866245
 30
0.0
 40
0.5000000000000058
100
AcDbArc
 50
0.0
 51
10.0
  0
LINE
  5
352
330
342
100
AcDbEntity
  8
ﾐﾗｰIWBブラケット16080
  6
CONTINUOUS
 62
     7
100
AcDbLine
 10
342.7176860838
 20
197.0807815966
 30
0.0
 11
342.7176860838
 21
197.5007815966
 31
0.0
  0
LINE
  5
353
330
342
100
AcDbEntity
  8
ﾐﾗｰIWBブラケット16080
  6
CONTINUOUS
 62
     7
100
AcDbLine
 10
343.3891006738
 20
197.7007815966
 30
0.0
 11
344.5176860838
 21
197.7007815966
 31
0.0
  0
ARC
  5
354
330
342
100
AcDbEntity
  8
ﾐﾗｰIWBブラケット16080
  6
CONTINUOUS
 62
     7
100
AcDbCircle
 10
343.3891006738
 20
197.9007815966
 30
0.0
 40
0.2000000000000002
100
AcDbArc
 50
195.0
 51
270.0
  0
LINE
  5
356
330
342
100
AcDbEntity
  8
ﾐﾗｰIWB固定金具160803
  6
CONTINUOUS
 62
     7
100
AcDbLine
 10
345.2176860838
 20
197.5007815966
 30
0.0
 11
345.2176860838
 21
197.2807815966
 31
0.0
  0
LINE
  5
357
330
342
100
AcDbEntity
  8
ﾐﾗｰIWB固定金具160803
  6
CONTINUOUS
 62
     7
100
AcDbLine
 10
345.2176860838
 20
170.7207815966
 30
0.0
 11
345.2176860838
 21
167.4992739404
 31
0.0
  0
LINE
  5
358
330
342
100
AcDbEntity
  8
ﾐﾗｰIWB固定金具160803
  6
CONTINUOUS
 62
     7
100
AcDbLine
 10
345.2176860838
 20
197.5007815966
 30
0.0
 11
345.5376860838
 21
197.5007815966
 31
0.0
  0
LINE
  5
359
330
342
100
AcDbEntity
  8
ﾐﾗｰIWB固定金具160803
  6
CONTINUOUS
 62
     7
100
AcDbLine
 10
348.2003267709
 20
197.5007815966
 30
0.0
 11
345.5376860838
 21
197.5007815966
 31
0.0
  0
LINE
  5
35A
330
342
100
AcDbEntity
  8
ﾐﾗｰIWB固定金具160803
  6
CONTINUOUS
 62
     7
100
AcDbLine
 10
348.5538801615
 20
197.3543349872
 30
0.0
 11
354.9391796337
 21
190.9690355151
 31
0.0
  0
ARC
  5
35B
330
342
100
AcDbEntity
  8
ﾐﾗｰIWB固定金具160803
  6
CONTINUOUS
 62
     7
100
AcDbCircle
 10
348.2003267709
 20
197.0007815966
 30
0.0
 40
0.4999999999999894
100
AcDbArc
 50
45.0
 51
90.0
  0
LINE
  5
35D
330
342
100
AcDbEntity
  8
IWB受金具160803_ﾃﾞﾌ_
  6
CONTINUOUS
 62
     7
100
AcDbLine
 10
342.7176860838
 20
197.5007815966
 30
0.0
 11
342.7176860838
 21
199.3007815966
 31
0.0
  0
LINE
  5
35E
330
342
100
AcDbEntity
  8
IWB受金具160803_ﾃﾞﾌ_
  6
CONTINUOUS
 62
     7
100
AcDbLine
 10
342.9176860838
 20
199.3007815966
 30
0.0
 11
342.9176860838
 21
197.5007815966
 31
0.0
  0
LINE
  5
35F
330
342
100
AcDbEntity
  8
IWB受金具160803_ﾃﾞﾌ_
  6
CONTINUOUS
 62
     7
100
AcDbLine
 10
344.9176860838
 20
170.5007815966
 30
0.0
 11
345.0176860838
 21
170.5007815966
 31
0.0
  0
LINE
  5
360
330
342
100
AcDbEntity
  8
IWB受金具160803_ﾃﾞﾌ_
  6
CONTINUOUS
 62
     7
100
AcDbLine
 10
345.0176860838
 20
170.7007815966
 30
0.0
 11
345.0176860838
 21
170.7207815966
 31
0.0
  0
LINE
  5
361
330
342
100
AcDbEntity
  8
IWB受金具160803_ﾃﾞﾌ_
  6
CONTINUOUS
 62
     7
100
AcDbLine
 10
345.0176860838
 20
197.2807815966
 30
0.0
 11
345.0176860838
 21
197.3007815966
 31
0.0
  0
LINE
  5
362
330
342
100
AcDbEntity
  8
IWB受金具160803_ﾃﾞﾌ_
  6
CONTINUOUS
 62
     7
100
AcDbLine
 10
345.2176860838
 20
197.2807815966
 30
0.0
 11
345.2176860838
 21
170.7207815966
 31
0.0
  0
LINE
  5
363
330
342
100
AcDbEntity
  8
IWB受金具160803_ﾃﾞﾌ_
  6
CONTINUOUS
 62
     7
100
AcDbLine
 10
344.9176860838
 20
197.5007815966
 30
0.0
 11
345.0176860838
 21
197.5007815966
 31
0.0
  0
LINE
  5
364
330
342
100
AcDbEntity
  8
IWB受金具160803_ﾃﾞﾌ_
  6
CONTINUOUS
 62
     7
100
AcDbLine
 10
342.9176860838
 20
197.5007815966
 30
0.0
 11
344.7176860838
 21
197.5007815966
 31
0.0
  0
LINE
  5
365
330
342
100
AcDbEntity
  8
IWB受金具160803_ﾃﾞﾌ_
  6
CONTINUOUS
 62
     7
100
AcDbLine
 10
344.7176860838
 20
197.3007815966
 30
0.0
 11
342.9176860838
 21
197.3007815966
 31
0.0
  0
LINE
  5
366
330
342
100
AcDbEntity
  8
IWB受金具160803_ﾃﾞﾌ_
  6
CONTINUOUS
 62
     7
100
AcDbLine
 10
345.0176860838
 20
197.3007815966
 30
0.0
 11
344.9176860838
 21
197.3007815966
 31
0.0
  0
LINE
  5
367
330
342
100
AcDbEntity
  8
IWB受金具160803_ﾃﾞﾌ_
  6
CONTINUOUS
 62
     7
100
AcDbLine
 10
342.9176860838
 20
197.2807815966
 30
0.0
 11
345.0176860838
 21
197.2807815966
 31
0.0
  0
LINE
  5
368
330
342
100
AcDbEntity
  8
IWB受金具160803_ﾃﾞﾌ_
  6
CONTINUOUS
 62
     7
100
AcDbLine
 10
342.9176860838
 20
170.7207815966
 30
0.0
 11
345.0176860838
 21
170.7207815966
 31
0.0
  0
LINE
  5
369
330
342
100
AcDbEntity
  8
IWB受金具160803_ﾃﾞﾌ_
  6
CONTINUOUS
 62
     7
100
AcDbLine
 10
342.7176860838
 20
197.0807815966
 30
0.0
 11
342.7176860838
 21
170.9207815966
 31
0.0
  0
LINE
  5
36A
330
342
100
AcDbEntity
  8
IWB受金具160803_ﾃﾞﾌ_
  6
CONTINUOUS
 62
     7
100
AcDbLine
 10
344.7176860838
 20
170.5007815966
 30
0.0
 11
342.9176860838
 21
170.5007815966
 31
0.0
  0
LINE
  5
36B
330
342
100
AcDbEntity
  8
IWB受金具160803_ﾃﾞﾌ_
  6
CONTINUOUS
 62
     7
100
AcDbLine
 10
342.9176860838
 20
170.7007815966
 30
0.0
 11
344.7176860838
 21
170.7007815966
 31
0.0
  0
LINE
  5
36C
330
342
100
AcDbEntity
  8
IWB受金具160803_ﾃﾞﾌ_
  6
CONTINUOUS
 62
     7
100
AcDbLine
 10
344.9176860838
 20
170.7007815966
 30
0.0
 11
345.0176860838
 21
170.7007815966
 31
0.0
  0
ARC
  5
36D
330
342
100
AcDbEntity
  8
IWB受金具160803_ﾃﾞﾌ_
  6
CONTINUOUS
 62
     7
100
AcDbCircle
 10
345.0176860838
 20
170.7007815966
 30
0.0
 40
0.2000000000000002
100
AcDbArc
 50
270.0
 51
0.0
  0
ARC
  5
36E
330
342
100
AcDbEntity
  8
IWB受金具160803_ﾃﾞﾌ_
  6
CONTINUOUS
 62
     7
100
AcDbCircle
 10
345.0176860838
 20
197.3007815966
 30
0.0
 40
0.2000000000000002
100
AcDbArc
 50
0.0
 51
90.0
  0
LINE
  5
36F
330
342
100
AcDbEntity
  8
IWB受金具160803_ﾃﾞﾌ_
  6
CONTINUOUS
 62
     7
100
AcDbLine
 10
345.0176860838
 20
197.2807815966
 30
0.0
 11
345.2176860838
 21
197.2807815966
 31
0.0
  0
LINE
  5
370
330
342
100
AcDbEntity
  8
IWB受金具160803_ﾃﾞﾌ_
  6
CONTINUOUS
 62
     7
100
AcDbLine
 10
345.2176860838
 20
170.7207815966
 30
0.0
 11
345.0176860838
 21
170.7207815966
 31
0.0
  0
ARC
  5
371
330
342
100
AcDbEntity
  8
IWB受金具160803_ﾃﾞﾌ_
  6
CONTINUOUS
 62
     7
100
AcDbCircle
 10
342.9176860838
 20
197.5007815966
 30
0.0
 40
0.2000000000000002
100
AcDbArc
 50
180.0
 51
270.0
  0
LINE
  5
372
330
342
100
AcDbEntity
  8
IWB受金具160803_ﾃﾞﾌ_
  6
CONTINUOUS
 62
     7
100
AcDbLine
 10
342.7176860838
 20
170.5007815966
 30
0.0
 11
342.9176860838
 21
170.5007815966
 31
0.0
  0
LINE
  5
373
330
342
100
AcDbEntity
  8
IWB受金具160803_ﾃﾞﾌ_
  6
CONTINUOUS
 62
     7
100
AcDbLine
 10
342.9176860838
 20
170.7007815966
 30
0.0
 11
342.7176860838
 21
170.7007815966
 31
0.0
  0
LINE
  5
374
330
342
100
AcDbEntity
  8
IWB受金具160803_ﾃﾞﾌ_
  6
CONTINUOUS
 62
     7
100
AcDbLine
 10
342.7176860838
 20
170.7007815966
 30
0.0
 11
342.7176860838
 21
170.5007815966
 31
0.0
  0
LINE
  5
375
330
342
100
AcDbEntity
  8
IWB受金具160803_ﾃﾞﾌ_
  6
CONTINUOUS
 62
     7
100
AcDbLine
 10
344.9176860838
 20
170.7007815966
 30
0.0
 11
344.7176860838
 21
170.7007815966
 31
0.0
  0
LINE
  5
376
330
342
100
AcDbEntity
  8
IWB受金具160803_ﾃﾞﾌ_
  6
CONTINUOUS
 62
     7
100
AcDbLine
 10
344.7176860838
 20
170.5007815966
 30
0.0
 11
344.9176860838
 21
170.5007815966
 31
0.0
  0
LINE
  5
377
330
342
100
AcDbEntity
  8
IWB受金具160803_ﾃﾞﾌ_
  6
CONTINUOUS
 62
     7
100
AcDbLine
 10
344.9176860838
 20
170.5007815966
 30
0.0
 11
344.9176860838
 21
170.7007815966
 31
0.0
  0
ARC
  5
378
330
342
100
AcDbEntity
  8
IWB受金具160803_ﾃﾞﾌ_
  6
CONTINUOUS
 62
     7
100
AcDbCircle
 10
342.9176860838
 20
170.9207815966
 30
0.0
 40
0.2000000000000002
100
AcDbArc
 50
180.0
 51
270.0
  0
LINE
  5
379
330
342
100
AcDbEntity
  8
IWB受金具160803_ﾃﾞﾌ_
  6
CONTINUOUS
 62
     7
100
AcDbLine
 10
344.9176860838
 20
197.5007815966
 30
0.0
 11
344.7176860838
 21
197.5007815966
 31
0.0
  0
LINE
  5
37A
330
342
100
AcDbEntity
  8
IWB受金具160803_ﾃﾞﾌ_
  6
CONTINUOUS
 62
     7
100
AcDbLine
 10
344.7176860838
 20
197.3007815966
 30
0.0
 11
344.9176860838
 21
197.3007815966
 31
0.0
  0
LINE
  5
37B
330
342
100
AcDbEntity
  8
IWB受金具160803_ﾃﾞﾌ_
  6
CONTINUOUS
 62
     7
100
AcDbLine
 10
344.9176860838
 20
197.3007815966
 30
0.0
 11
344.9176860838
 21
197.5007815966
 31
0.0
  0
ARC
  5
37C
330
342
100
AcDbEntity
  8
IWB受金具160803_ﾃﾞﾌ_
  6
CONTINUOUS
 62
     7
100
AcDbCircle
 10
342.9176860838
 20
197.0807815966
 30
0.0
 40
0.2000000000000002
100
AcDbArc
 50
90.0
 51
180.0
  0
LINE
  5
37D
330
342
100
AcDbEntity
  8
IWB受金具160803_ﾃﾞﾌ_
  6
CONTINUOUS
 62
     7
100
AcDbLine
 10
342.7176860838
 20
199.8007815966
 30
0.0
 11
342.7176860838
 21
199.3007815966
 31
0.0
  0
LINE
  5
37E
330
342
100
AcDbEntity
  8
IWB受金具160803_ﾃﾞﾌ_
  6
CONTINUOUS
 62
     7
100
AcDbLine
 10
342.9176860838
 20
199.3007815966
 30
0.0
 11
342.9176860838
 21
199.8007815966
 31
0.0
  0
LINE
  5
37F
330
342
100
AcDbEntity
  8
IWB受金具160803_ﾃﾞﾌ_
  6
CONTINUOUS
 62
     7
100
AcDbLine
 10
342.9176860838
 20
199.8007815966
 30
0.0
 11
342.7176860838
 21
199.8007815966
 31
0.0
  0
LINE
  5
380
330
342
100
AcDbEntity
  8
ﾐﾗｰ棚板ブラケット150407
  6
CONTINUOUS
 62
     7
100
AcDbLine
 10
331.3848891388
 20
103.6923762947
 30
0.0
 11
330.5317520538
 21
103.4612036652
 31
0.0
  0
LINE
  5
381
330
342
100
AcDbEntity
  8
ﾐﾗｰ棚板ブラケット150407
  6
CONTINUOUS
 62
     7
100
AcDbLine
 10
331.3848891388
 20
105.9311013935
 30
0.0
 11
331.3848891388
 21
103.6923762947
 31
0.0
  0
ARC
  5
382
330
342
100
AcDbEntity
  8
ﾐﾗｰ棚板ブラケット150407
  6
CONTINUOUS
 62
     7
100
AcDbCircle
 10
330.1299011333
 20
106.5311815667
 30
0.0
 40
3.09616673935915
100
AcDbArc
 50
275.3505360401
 51
277.4574469296
  0
LINE
  5
383
330
342
100
AcDbEntity
  8
ﾐﾗｰ棚板ブラケット150407
  6
CONTINUOUS
 62
     7
100
AcDbLine
 10
353.365657308
 20
109.6484554115
 30
0.0
 11
331.3848891388
 21
103.6923762947
 31
0.0
  0
ARC
  5
384
330
342
100
AcDbEntity
  8
ﾐﾗｰ棚板ブラケット150407
  6
CONTINUOUS
 62
     7
100
AcDbCircle
 10
353.2348891388
 20
110.1310522266
 30
0.0
 40
0.5000000000000004
100
AcDbArc
 50
285.1612425781
 51
348.1650099775
  0
LINE
  5
385
330
342
100
AcDbEntity
  8
製品デカル150204_座り_ぶ
  6
CONTINUOUS
 62
     7
100
AcDbLine
 10
357.2348891388
 20
112.0285053269
 30
0.0
 11
357.2348891388
 21
112.0485053269
 31
0.0
  0
LINE
  5
386
330
342
100
AcDbEntity
  8
製品デカル150204_座り_ぶ
  6
CONTINUOUS
 62
     7
100
AcDbLine
 10
357.4348891388
 20
112.0485053269
 30
0.0
 11
361.4348891388
 21
112.0485053269
 31
0.0
  0
LINE
  5
387
330
342
100
AcDbEntity
  8
製品デカル150204_座り_ぶ
  6
CONTINUOUS
 62
     7
100
AcDbLine
 10
361.4348891388
 20
112.0485053269
 30
0.0
 11
361.6348891388
 21
112.0485053269
 31
0.0
  0
LINE
  5
388
330
342
100
AcDbEntity
  8
製品デカル150204_座り_ぶ
  6
CONTINUOUS
 62
     7
100
AcDbLine
 10
357.2348891388
 20
112.0485053269
 30
0.0
 11
357.4348891388
 21
112.0485053269
 31
0.0
  0
LINE
  5
389
330
342
100
AcDbEntity
  8
製品デカル150204_座り_ぶ
  6
CONTINUOUS
 62
     7
100
AcDbLine
 10
361.6348891388
 20
112.0485053269
 30
0.0
 11
361.6348891388
 21
112.0285053269
 31
0.0
  0
LINE
  5
38A
330
342
100
AcDbEntity
  8
棚板本体160803_ﾃﾞﾌｫﾙ
  6
CONTINUOUS
 62
     7
100
AcDbLine
 10
361.3648891388
 20
110.1585053269
 30
0.0
 11
361.3648891388
 21
110.1085053269
 31
0.0
  0
LINE
  5
38B
330
342
100
AcDbEntity
  8
棚板本体160803_ﾃﾞﾌｫﾙ
  6
CONTINUOUS
 62
     7
100
AcDbLine
 10
362.2148891388
 20
110.0285053269
 30
0.0
 11
361.7348891388
 21
110.0285053269
 31
0.0
  0
LINE
  5
38C
330
342
100
AcDbEntity
  8
棚板本体160803_ﾃﾞﾌｫﾙ
  6
CONTINUOUS
 62
     7
100
AcDbLine
 10
361.7348891388
 20
110.1085053269
 30
0.0
 11
362.2148891388
 21
110.1085053269
 31
0.0
  0
ARC
  5
38D
330
342
100
AcDbEntity
  8
棚板本体160803_ﾃﾞﾌｫﾙ
  6
CONTINUOUS
 62
     7
100
AcDbCircle
 10
361.3648891388
 20
110.1085053269
 30
0.0
 40
0.0799999999998908
100
AcDbArc
 50
179.9999999999
 51
270.0000000001
  0
LINE
  5
38E
330
342
100
AcDbEntity
  8
棚板本体160803_ﾃﾞﾌｫﾙ
  6
CONTINUOUS
 62
     7
100
AcDbLine
 10
361.2348891388
 20
110.0285053269
 30
0.0
 11
332.9413468841
 21
110.0285053269
 31
0.0
  0
LINE
  5
38F
330
342
100
AcDbEntity
  8
棚板本体160803_ﾃﾞﾌｫﾙ
  6
CONTINUOUS
 62
     7
100
AcDbLine
 10
361.2348891388
 20
110.1085053269
 30
0.0
 11
361.2348891388
 21
110.1585053269
 31
0.0
  0
LINE
  5
390
330
342
100
AcDbEntity
  8
棚板本体160803_ﾃﾞﾌｫﾙ
  6
CONTINUOUS
 62
     7
100
AcDbLine
 10
361.2348891388
 20
110.1585053269
 30
0.0
 11
362.2048891388
 21
110.1585053269
 31
0.0
  0
ARC
  5
391
330
342
100
AcDbEntity
  8
棚板本体160803_ﾃﾞﾌｫﾙ
  6
CONTINUOUS
 62
     7
100
AcDbCircle
 10
362.2048891388
 20
110.4585053269
 30
0.0
 40
0.3000000000000003
100
AcDbArc
 50
270.0
 51
0.0
  0
LINE
  5
392
330
342
100
AcDbEntity
  8
棚板本体160803_ﾃﾞﾌｫﾙ
  6
CONTINUOUS
 62
     7
100
AcDbLine
 10
362.5048891388
 20
110.4585053269
 30
0.0
 11
362.5048891388
 21
111.4948857273
 31
0.0
  0
LINE
  5
393
330
342
100
AcDbEntity
  8
棚板本体160803_ﾃﾞﾌｫﾙ
  6
CONTINUOUS
 62
     7
100
AcDbLine
 10
362.5048891388
 20
111.4948857273
 30
0.0
 11
362.1348891388
 21
111.7085053269
 31
0.0
  0
LINE
  5
394
330
342
100
AcDbEntity
  8
棚板本体160803_ﾃﾞﾌｫﾙ
  6
CONTINUOUS
 62
     7
100
AcDbLine
 10
362.1348891388
 20
111.7085053269
 30
0.0
 11
362.1348891388
 21
111.9485053269
 31
0.0
  0
LINE
  5
395
330
342
100
AcDbEntity
  8
棚板本体160803_ﾃﾞﾌｫﾙ
  6
CONTINUOUS
 62
     7
100
AcDbLine
 10
362.6348891388
 20
111.6085053269
 30
0.0
 11
362.6348891388
 21
110.4485053269
 31
0.0
  0
LINE
  5
396
330
342
100
AcDbEntity
  8
棚板本体160803_ﾃﾞﾌｫﾙ
  6
CONTINUOUS
 62
     7
100
AcDbLine
 10
362.5548891388
 20
110.4485053269
 30
0.0
 11
362.5548891388
 21
111.6085053269
 31
0.0
  0
LINE
  5
397
330
342
100
AcDbEntity
  8
棚板本体160803_ﾃﾞﾌｫﾙ
  6
CONTINUOUS
 62
     7
100
AcDbLine
 10
362.2148891388
 20
111.9485053269
 30
0.0
 11
362.1348891388
 21
111.9485053269
 31
0.0
  0
LINE
  5
398
330
342
100
AcDbEntity
  8
棚板本体160803_ﾃﾞﾌｫﾙ
  6
CONTINUOUS
 62
     7
100
AcDbLine
 10
362.1348891388
 20
112.0285053269
 30
0.0
 11
362.2148891388
 21
112.0285053269
 31
0.0
  0
LINE
  5
399
330
342
100
AcDbEntity
  8
棚板本体160803_ﾃﾞﾌｫﾙ
  6
CONTINUOUS
 62
     7
100
AcDbLine
 10
333.7010756151
 20
112.0285053269
 30
0.0
 11
362.1348891388
 21
112.0285053269
 31
0.0
  0
LINE
  5
39A
330
342
100
AcDbEntity
  8
棚板本体160803_ﾃﾞﾌｫﾙ
  6
CONTINUOUS
 62
     7
100
AcDbLine
 10
362.1348891388
 20
112.0014203531
 30
0.0
 11
362.1348891388
 21
111.9485053269
 31
0.0
  0
ARC
  5
39B
330
342
100
AcDbEntity
  8
棚板本体160803_ﾃﾞﾌｫﾙ
  6
CONTINUOUS
 62
     7
100
AcDbCircle
 10
362.2148891388
 20
111.6085053269
 30
0.0
 40
0.4199999999999982
100
AcDbArc
 50
0.0
 51
90.0
  0
ARC
  5
39C
330
342
100
AcDbEntity
  8
棚板本体160803_ﾃﾞﾌｫﾙ
  6
CONTINUOUS
 62
     7
100
AcDbCircle
 10
362.2148891388
 20
111.6085053269
 30
0.0
 40
0.340000000000007
100
AcDbArc
 50
0.0
 51
90.0
  0
ARC
  5
39D
330
342
100
AcDbEntity
  8
棚板本体160803_ﾃﾞﾌｫﾙ
  6
CONTINUOUS
 62
     7
100
AcDbCircle
 10
362.2148891388
 20
110.4485053269
 30
0.0
 40
0.4199999999999982
100
AcDbArc
 50
270.0
 51
0.0
  0
ARC
  5
39E
330
342
100
AcDbEntity
  8
棚板本体160803_ﾃﾞﾌｫﾙ
  6
CONTINUOUS
 62
     7
100
AcDbCircle
 10
362.2148891388
 20
110.4485053269
 30
0.0
 40
0.340000000000007
100
AcDbArc
 50
270.0
 51
0.0
  0
LINE
  5
39F
330
342
100
AcDbEntity
  8
棚板本体160803_ﾃﾞﾌｫﾙ
  6
CONTINUOUS
 62
     7
100
AcDbLine
 10
361.2348891388
 20
110.1085053269
 30
0.0
 11
361.2348891388
 21
110.0285053269
 31
0.0
  0
LINE
  5
3A0
330
342
100
AcDbEntity
  8
棚板本体160803_ﾃﾞﾌｫﾙ
  6
CONTINUOUS
 62
     7
100
AcDbLine
 10
362.1348891388
 20
112.0014203531
 30
0.0
 11
362.1348891388
 21
112.0285053269
 31
0.0
  0
LINE
  5
3A1
330
342
100
AcDbEntity
  8
棚板本体160803_ﾃﾞﾌｫﾙ
  6
CONTINUOUS
 62
     7
100
AcDbLine
 10
361.3648891388
 20
110.0285053269
 30
0.0
 11
361.7348891388
 21
110.0285053269
 31
0.0
  0
LINE
  5
3A2
330
342
100
AcDbEntity
  8
棚板本体160803_ﾃﾞﾌｫﾙ
  6
CONTINUOUS
 62
     7
100
AcDbLine
 10
361.7348891388
 20
110.0285053269
 30
0.0
 11
361.7348891388
 21
110.1085053269
 31
0.0
  0
LINE
  5
3A3
330
342
100
AcDbEntity
  8
棚板本体160803_ﾃﾞﾌｫﾙ
  6
CONTINUOUS
 62
     7
100
AcDbLine
 10
361.7348891388
 20
110.1085053269
 30
0.0
 11
361.3648891388
 21
110.1085053269
 31
0.0
  0
LINE
  5
3A4
330
342
100
AcDbEntity
  8
棚板本体160803_ﾃﾞﾌｫﾙ
  6
CONTINUOUS
 62
     7
100
AcDbLine
 10
361.3648891388
 20
110.0285053269
 30
0.0
 11
361.3648891388
 21
110.0575757451
 31
0.0
  0
LINE
  5
3A5
330
342
100
AcDbEntity
  8
棚板本体160803_ﾃﾞﾌｫﾙ
  6
CONTINUOUS
 62
     7
100
AcDbLine
 10
361.3648891388
 20
110.0575757451
 30
0.0
 11
361.3648891388
 21
110.1085053269
 31
0.0
  0
LINE
  5
3A6
330
342
100
AcDbEntity
  8
棚板本体160803_ﾃﾞﾌｫﾙ
  6
CONTINUOUS
 62
     7
100
AcDbLine
 10
361.2848891388
 20
110.1585053269
 30
0.0
 11
361.2848891388
 21
110.1085053269
 31
0.0
  0
LINE
  5
3A7
330
342
100
AcDbEntity
  8
棚板本体160803_ﾃﾞﾌｫﾙ
  6
CONTINUOUS
 62
     7
100
AcDbLine
 10
361.2848891388
 20
110.1085053269
 30
0.0
 11
361.313959557
 21
110.1085053269
 31
0.0
  0
LINE
  5
3A8
330
342
100
AcDbEntity
  8
棚板本体160803_ﾃﾞﾌｫﾙ
  6
CONTINUOUS
 62
     7
100
AcDbLine
 10
361.313959557
 20
110.1085053269
 30
0.0
 11
361.3648891388
 21
110.1085053269
 31
0.0
  0
LINE
  5
3AA
330
342
100
AcDbEntity
  8
ブラインドリベット150204_
  6
CONTINUOUS
 62
     7
100
AcDbLine
 10
324.7548966324
 20
88.2240781726
 30
0.0
 11
324.8614287211
 21
88.5045258755
 31
0.0
  0
ARC
  5
3AB
330
342
100
AcDbEntity
  8
ブラインドリベット150204_
  6
CONTINUOUS
 62
     7
100
AcDbCircle
 10
324.6082467671
 20
88.6007006778
 30
0.0
 40
0.2708333333333336
100
AcDbArc
 50
339.2
 51
15.927267076
  0
ARC
  5
3AC
330
342
100
AcDbEntity
  8
ブラインドリベット150204_
  6
CONTINUOUS
 62
     7
100
AcDbCircle
 10
324.5017146784
 20
88.3202529749
 30
0.0
 40
0.2708333333333314
100
AcDbArc
 50
302.472732924
 51
339.2
  0
LINE
  5
3AD
330
342
100
AcDbEntity
  8
ブラインドリベット150204_
  6
CONTINUOUS
 62
     7
100
AcDbLine
 10
324.8565529545
 20
88.6882300922
 30
0.0
 11
324.8376625938
 21
88.6954058671
 31
0.0
  0
LINE
  5
3AE
330
342
100
AcDbEntity
  8
ブラインドリベット150204_
  6
CONTINUOUS
 62
     7
100
AcDbLine
 10
324.6103941379
 20
88.0971174342
 30
0.0
 11
324.6292844986
 21
88.0899416593
 31
0.0
  0
ARC
  5
3AF
330
342
100
AcDbEntity
  8
ブラインドリベット150204_
  6
CONTINUOUS
 62
     7
100
AcDbCircle
 10
324.6363866378
 20
88.1086381728
 30
0.0
 40
0.0200000000000015
100
AcDbArc
 50
249.2
 51
302.4727329239
  0
ARC
  5
3B0
330
342
100
AcDbEntity
  8
ブラインドリベット150204_
  6
CONTINUOUS
 62
     7
100
AcDbCircle
 10
324.8494508153
 20
88.6695335787
 30
0.0
 40
0.0200000000000009
100
AcDbArc
 50
15.927267076
 51
69.2000000002
  0
LINE
  5
3B1
330
342
100
AcDbEntity
  8
ブラインドリベット150204_
  6
CONTINUOUS
 62
     7
100
AcDbLine
 10
346.7715283017
 20
146.1832701091
 30
0.0
 11
346.8780603904
 21
146.463717812
 31
0.0
  0
ARC
  5
3B2
330
342
100
AcDbEntity
  8
ブラインドリベット150204_
  6
CONTINUOUS
 62
     7
100
AcDbCircle
 10
346.6248784364
 20
146.5598926143
 30
0.0
 40
0.270833333333331
100
AcDbArc
 50
339.2
 51
15.927267076
  0
ARC
  5
3B3
330
342
100
AcDbEntity
  8
ブラインドリベット150204_
  6
CONTINUOUS
 62
     7
100
AcDbCircle
 10
346.5183463477
 20
146.2794449114
 30
0.0
 40
0.2708333333333314
100
AcDbArc
 50
302.472732924
 51
339.2
  0
LINE
  5
3B4
330
342
100
AcDbEntity
  8
ブラインドリベット150204_
  6
CONTINUOUS
 62
     7
100
AcDbLine
 10
346.8731846238
 20
146.6474220288
 30
0.0
 11
346.8542942631
 21
146.6545978036
 31
0.0
  0
LINE
  5
3B5
330
342
100
AcDbEntity
  8
ブラインドリベット150204_
  6
CONTINUOUS
 62
     7
100
AcDbLine
 10
346.6270258072
 20
146.0563093707
 30
0.0
 11
346.6459161679
 21
146.0491335959
 31
0.0
  0
ARC
  5
3B6
330
342
100
AcDbEntity
  8
ブラインドリベット150204_
  6
CONTINUOUS
 62
     7
100
AcDbCircle
 10
346.6530183071
 20
146.0678301094
 30
0.0
 40
0.0199999999999953
100
AcDbArc
 50
249.2
 51
302.4727329239
  0
ARC
  5
3B7
330
342
100
AcDbEntity
  8
ブラインドリベット150204_
  6
CONTINUOUS
 62
     7
100
AcDbCircle
 10
346.8660824846
 20
146.6287255152
 30
0.0
 40
0.0199999999999983
100
AcDbArc
 50
15.9272670761
 51
69.2
  0
LINE
  5
3B8
330
342
100
AcDbEntity
  8
ブラインドリベット150204_
  6
CONTINUOUS
 62
     7
100
AcDbLine
 10
368.788159971
 20
204.1424620457
 30
0.0
 11
368.8946920597
 21
204.4229097486
 31
0.0
  0
ARC
  5
3B9
330
342
100
AcDbEntity
  8
ブラインドリベット150204_
  6
CONTINUOUS
 62
     7
100
AcDbCircle
 10
368.6415101057
 20
204.5190845509
 30
0.0
 40
0.270833333333331
100
AcDbArc
 50
339.2
 51
15.927267076
  0
ARC
  5
3BA
330
342
100
AcDbEntity
  8
ブラインドリベット150204_
  6
CONTINUOUS
 62
     7
100
AcDbCircle
 10
368.534978017
 20
204.238636848
 30
0.0
 40
0.2708333333333408
100
AcDbArc
 50
302.472732924
 51
339.2
  0
LINE
  5
3BB
330
342
100
AcDbEntity
  8
ブラインドリベット150204_
  6
CONTINUOUS
 62
     7
100
AcDbLine
 10
368.8898162931
 20
204.6066139653
 30
0.0
 11
368.8709259324
 21
204.6137897402
 31
0.0
  0
LINE
  5
3BC
330
342
100
AcDbEntity
  8
ブラインドリベット150204_
  6
CONTINUOUS
 62
     7
100
AcDbLine
 10
368.6436574765
 20
204.0155013073
 30
0.0
 11
368.6625478372
 21
204.0083255324
 31
0.0
  0
ARC
  5
3BD
330
342
100
AcDbEntity
  8
ブラインドリベット150204_
  6
CONTINUOUS
 62
     7
100
AcDbCircle
 10
368.6696499764
 20
204.0270220459
 30
0.0
 40
0.0200000000000096
100
AcDbArc
 50
249.2
 51
302.4727329242
  0
ARC
  5
3BE
330
342
100
AcDbEntity
  8
ブラインドリベット150204_
  6
CONTINUOUS
 62
     7
100
AcDbCircle
 10
368.8827141539
 20
204.5879174518
 30
0.0
 40
0.0200000000000006
100
AcDbArc
 50
15.9272670759
 51
69.1999999998
  0
LINE
  5
3BF
330
342
100
AcDbEntity
  8
アジャスター_大昌H150_12
  6
CONTINUOUS
 62
     7
100
AcDbLine
 10
304.260679355
 20
58.0273021508
 30
0.0
 11
300.410679355
 21
58.0273021508
 31
0.0
  0
LINE
  5
3C0
330
342
100
AcDbEntity
  8
アジャスター_大昌H150_12
  6
CONTINUOUS
 62
     7
100
AcDbLine
 10
302.835679355
 20
60.8273021508
 30
0.0
 11
301.835679355
 21
60.8273021508
 31
0.0
  0
LINE
  5
3C1
330
342
100
AcDbEntity
  8
アジャスター_大昌H150_12
  6
CONTINUOUS
 62
     7
100
AcDbLine
 10
304.260679355
 20
57.1273021508
 30
0.0
 11
304.2548263009
 21
57.1273021508
 31
0.0
  0
LINE
  5
3C2
330
342
100
AcDbEntity
  8
アジャスター_大昌H150_12
  6
CONTINUOUS
 62
     7
100
AcDbLine
 10
300.510679355
 20
57.0273021508
 30
0.0
 11
304.160679355
 21
57.0273021508
 31
0.0
  0
LINE
  5
3C3
330
342
100
AcDbEntity
  8
アジャスター_大昌H150_12
  6
CONTINUOUS
 62
     7
100
AcDbLine
 10
304.2548263009
 20
57.9273021508
 30
0.0
 11
304.2548263009
 21
57.1273021508
 31
0.0
  0
LINE
  5
3C4
330
342
100
AcDbEntity
  8
アジャスター_大昌H150_12
  6
CONTINUOUS
 62
     7
100
AcDbLine
 10
304.260679355
 20
57.9273021508
 30
0.0
 11
304.2548263009
 21
57.9273021508
 31
0.0
  0
LINE
  5
3C5
330
342
100
AcDbEntity
  8
アジャスター_大昌H150_12
  6
CONTINUOUS
 62
     7
100
AcDbLine
 10
304.118910323
 20
57.9273021508
 30
0.0
 11
304.118910323
 21
57.1273021508
 31
0.0
  0
LINE
  5
3C6
330
342
100
AcDbEntity
  8
アジャスター_大昌H150_12
  6
CONTINUOUS
 62
     7
100
AcDbLine
 10
304.1145440145
 20
57.1273021508
 30
0.0
 11
304.2072491128
 21
57.1273021508
 31
0.0
  0
LINE
  5
3C7
330
342
100
AcDbEntity
  8
アジャスター_大昌H150_12
  6
CONTINUOUS
 62
     7
100
AcDbLine
 10
304.1145440145
 20
57.9273021508
 30
0.0
 11
304.1145440145
 21
57.1273021508
 31
0.0
  0
LINE
  5
3C8
330
342
100
AcDbEntity
  8
アジャスター_大昌H150_12
  6
CONTINUOUS
 62
     7
100
AcDbLine
 10
304.2072491128
 20
57.9273021508
 30
0.0
 11
304.2072491128
 21
57.1273021508
 31
0.0
  0
LINE
  5
3C9
330
342
100
AcDbEntity
  8
アジャスター_大昌H150_12
  6
CONTINUOUS
 62
     7
100
AcDbLine
 10
304.1145440145
 20
57.9273021508
 30
0.0
 11
304.2072491128
 21
57.9273021508
 31
0.0
  0
LINE
  5
3CA
330
342
100
AcDbEntity
  8
アジャスター_大昌H150_12
  6
CONTINUOUS
 62
     7
100
AcDbLine
 10
303.8525862194
 20
57.9273021508
 30
0.0
 11
303.8525862194
 21
57.1273021508
 31
0.0
  0
LINE
  5
3CB
330
342
100
AcDbEntity
  8
アジャスター_大昌H150_12
  6
CONTINUOUS
 62
     7
100
AcDbLine
 10
303.8001340611
 20
57.1273021508
 30
0.0
 11
303.9764696368
 21
57.1273021508
 31
0.0
  0
LINE
  5
3CC
330
342
100
AcDbEntity
  8
アジャスター_大昌H150_12
  6
CONTINUOUS
 62
     7
100
AcDbLine
 10
303.8001340611
 20
57.9273021508
 30
0.0
 11
303.8001340611
 21
57.1273021508
 31
0.0
  0
LINE
  5
3CD
330
342
100
AcDbEntity
  8
アジャスター_大昌H150_12
  6
CONTINUOUS
 62
     7
100
AcDbLine
 10
303.9764696368
 20
57.9273021508
 30
0.0
 11
303.9764696368
 21
57.1273021508
 31
0.0
  0
LINE
  5
3CE
330
342
100
AcDbEntity
  8
アジャスター_大昌H150_12
  6
CONTINUOUS
 62
     7
100
AcDbLine
 10
303.8001340611
 20
57.9273021508
 30
0.0
 11
303.9764696368
 21
57.9273021508
 31
0.0
  0
LINE
  5
3CF
330
342
100
AcDbEntity
  8
アジャスター_大昌H150_12
  6
CONTINUOUS
 62
     7
100
AcDbLine
 10
303.437776703
 20
57.9273021508
 30
0.0
 11
303.437776703
 21
57.1273021508
 31
0.0
  0
LINE
  5
3D0
330
342
100
AcDbEntity
  8
アジャスター_大昌H150_12
  6
CONTINUOUS
 62
     7
100
AcDbLine
 10
303.3423730776
 20
57.1273021508
 30
0.0
 11
303.5850781759
 21
57.1273021508
 31
0.0
  0
LINE
  5
3D1
330
342
100
AcDbEntity
  8
アジャスター_大昌H150_12
  6
CONTINUOUS
 62
     7
100
AcDbLine
 10
303.3423730776
 20
57.9273021508
 30
0.0
 11
303.3423730776
 21
57.1273021508
 31
0.0
  0
LINE
  5
3D2
330
342
100
AcDbEntity
  8
アジャスター_大昌H150_12
  6
CONTINUOUS
 62
     7
100
AcDbLine
 10
303.5850781759
 20
57.9273021508
 30
0.0
 11
303.5850781759
 21
57.1273021508
 31
0.0
  0
LINE
  5
3D3
330
342
100
AcDbEntity
  8
アジャスター_大昌H150_12
  6
CONTINUOUS
 62
     7
100
AcDbLine
 10
303.3423730776
 20
57.9273021508
 30
0.0
 11
303.5850781759
 21
57.9273021508
 31
0.0
  0
LINE
  5
3D4
330
342
100
AcDbEntity
  8
アジャスター_大昌H150_12
  6
CONTINUOUS
 62
     7
100
AcDbLine
 10
302.9150862194
 20
57.9273021508
 30
0.0
 11
302.9150862194
 21
57.1273021508
 31
0.0
  0
LINE
  5
3D5
330
342
100
AcDbEntity
  8
アジャスター_大昌H150_12
  6
CONTINUOUS
 62
     7
100
AcDbLine
 10
302.7860698985
 20
57.1273021508
 30
0.0
 11
303.0713868534
 21
57.1273021508
 31
0.0
  0
LINE
  5
3D6
330
342
100
AcDbEntity
  8
アジャスター_大昌H150_12
  6
CONTINUOUS
 62
     7
100
AcDbLine
 10
302.7860698985
 20
57.9273021508
 30
0.0
 11
302.7860698985
 21
57.1273021508
 31
0.0
  0
LINE
  5
3D7
330
342
100
AcDbEntity
  8
アジャスター_大昌H150_12
  6
CONTINUOUS
 62
     7
100
AcDbLine
 10
303.0713868534
 20
57.9273021508
 30
0.0
 11
303.0713868534
 21
57.1273021508
 31
0.0
  0
LINE
  5
3D8
330
342
100
AcDbEntity
  8
アジャスター_大昌H150_12
  6
CONTINUOUS
 62
     7
100
AcDbLine
 10
302.7860698985
 20
57.9273021508
 30
0.0
 11
303.0713868534
 21
57.9273021508
 31
0.0
  0
LINE
  5
3D9
330
342
100
AcDbEntity
  8
アジャスター_大昌H150_12
  6
CONTINUOUS
 62
     7
100
AcDbLine
 10
302.335679355
 20
57.9273021508
 30
0.0
 11
302.335679355
 21
57.1273021508
 31
0.0
  0
LINE
  5
3DA
330
342
100
AcDbEntity
  8
アジャスター_大昌H150_12
  6
CONTINUOUS
 62
     7
100
AcDbLine
 10
302.185679355
 20
57.1273021508
 30
0.0
 11
302.485679355
 21
57.1273021508
 31
0.0
  0
LINE
  5
3DB
330
342
100
AcDbEntity
  8
アジャスター_大昌H150_12
  6
CONTINUOUS
 62
     7
100
AcDbLine
 10
302.185679355
 20
57.9273021508
 30
0.0
 11
302.185679355
 21
57.1273021508
 31
0.0
  0
LINE
  5
3DC
330
342
100
AcDbEntity
  8
アジャスター_大昌H150_12
  6
CONTINUOUS
 62
     7
100
AcDbLine
 10
302.485679355
 20
57.9273021508
 30
0.0
 11
302.485679355
 21
57.1273021508
 31
0.0
  0
LINE
  5
3DD
330
342
100
AcDbEntity
  8
アジャスター_大昌H150_12
  6
CONTINUOUS
 62
     7
100
AcDbLine
 10
302.185679355
 20
57.9273021508
 30
0.0
 11
302.485679355
 21
57.9273021508
 31
0.0
  0
LINE
  5
3DE
330
342
100
AcDbEntity
  8
アジャスター_大昌H150_12
  6
CONTINUOUS
 62
     7
100
AcDbLine
 10
301.7562724905
 20
57.9273021508
 30
0.0
 11
301.7562724905
 21
57.1273021508
 31
0.0
  0
LINE
  5
3DF
330
342
100
AcDbEntity
  8
アジャスター_大昌H150_12
  6
CONTINUOUS
 62
     7
100
AcDbLine
 10
301.5999718565
 20
57.1273021508
 30
0.0
 11
301.8852888114
 21
57.1273021508
 31
0.0
  0
LINE
  5
3E0
330
342
100
AcDbEntity
  8
アジャスター_大昌H150_12
  6
CONTINUOUS
 62
     7
100
AcDbLine
 10
301.5999718565
 20
57.9273021508
 30
0.0
 11
301.5999718565
 21
57.1273021508
 31
0.0
  0
LINE
  5
3E1
330
342
100
AcDbEntity
  8
アジャスター_大昌H150_12
  6
CONTINUOUS
 62
     7
100
AcDbLine
 10
301.8852888114
 20
57.9273021508
 30
0.0
 11
301.8852888114
 21
57.1273021508
 31
0.0
  0
LINE
  5
3E2
330
342
100
AcDbEntity
  8
アジャスター_大昌H150_12
  6
CONTINUOUS
 62
     7
100
AcDbLine
 10
301.5999718565
 20
57.9273021508
 30
0.0
 11
301.8852888114
 21
57.9273021508
 31
0.0
  0
LINE
  5
3E3
330
342
100
AcDbEntity
  8
アジャスター_大昌H150_12
  6
CONTINUOUS
 62
     7
100
AcDbLine
 10
301.2335820069
 20
57.9273021508
 30
0.0
 11
301.2335820069
 21
57.1273021508
 31
0.0
  0
LINE
  5
3E4
330
342
100
AcDbEntity
  8
アジャスター_大昌H150_12
  6
CONTINUOUS
 62
     7
100
AcDbLine
 10
301.086280534
 20
57.1273021508
 30
0.0
 11
301.3289856323
 21
57.1273021508
 31
0.0
  0
LINE
  5
3E5
330
342
100
AcDbEntity
  8
アジャスター_大昌H150_12
  6
CONTINUOUS
 62
     7
100
AcDbLine
 10
301.086280534
 20
57.9273021508
 30
0.0
 11
301.086280534
 21
57.1273021508
 31
0.0
  0
LINE
  5
3E6
330
342
100
AcDbEntity
  8
アジャスター_大昌H150_12
  6
CONTINUOUS
 62
     7
100
AcDbLine
 10
301.3289856323
 20
57.9273021508
 30
0.0
 11
301.3289856323
 21
57.1273021508
 31
0.0
  0
LINE
  5
3E7
330
342
100
AcDbEntity
  8
アジャスター_大昌H150_12
  6
CONTINUOUS
 62
     7
100
AcDbLine
 10
301.086280534
 20
57.9273021508
 30
0.0
 11
301.3289856323
 21
57.9273021508
 31
0.0
  0
LINE
  5
3E8
330
342
100
AcDbEntity
  8
アジャスター_大昌H150_12
  6
CONTINUOUS
 62
     7
100
AcDbLine
 10
300.8187724905
 20
57.9273021508
 30
0.0
 11
300.8187724905
 21
57.1273021508
 31
0.0
  0
LINE
  5
3E9
330
342
100
AcDbEntity
  8
アジャスター_大昌H150_12
  6
CONTINUOUS
 62
     7
100
AcDbLine
 10
300.6948890732
 20
57.1273021508
 30
0.0
 11
300.8712246489
 21
57.1273021508
 31
0.0
  0
LINE
  5
3EA
330
342
100
AcDbEntity
  8
アジャスター_大昌H150_12
  6
CONTINUOUS
 62
     7
100
AcDbLine
 10
300.6948890732
 20
57.9273021508
 30
0.0
 11
300.6948890732
 21
57.1273021508
 31
0.0
  0
LINE
  5
3EB
330
342
100
AcDbEntity
  8
アジャスター_大昌H150_12
  6
CONTINUOUS
 62
     7
100
AcDbLine
 10
300.8712246489
 20
57.9273021508
 30
0.0
 11
300.8712246489
 21
57.1273021508
 31
0.0
  0
LINE
  5
3EC
330
342
100
AcDbEntity
  8
アジャスター_大昌H150_12
  6
CONTINUOUS
 62
     7
100
AcDbLine
 10
300.6948890732
 20
57.9273021508
 30
0.0
 11
300.8712246489
 21
57.9273021508
 31
0.0
  0
LINE
  5
3ED
330
342
100
AcDbEntity
  8
アジャスター_大昌H150_12
  6
CONTINUOUS
 62
     7
100
AcDbLine
 10
300.5524483869
 20
57.9273021508
 30
0.0
 11
300.5524483869
 21
57.1273021508
 31
0.0
  0
LINE
  5
3EE
330
342
100
AcDbEntity
  8
アジャスター_大昌H150_12
  6
CONTINUOUS
 62
     7
100
AcDbLine
 10
300.4641095972
 20
57.1273021508
 30
0.0
 11
300.5568146955
 21
57.1273021508
 31
0.0
  0
LINE
  5
3EF
330
342
100
AcDbEntity
  8
アジャスター_大昌H150_12
  6
CONTINUOUS
 62
     7
100
AcDbLine
 10
300.4641095972
 20
57.9273021508
 30
0.0
 11
300.4641095972
 21
57.1273021508
 31
0.0
  0
LINE
  5
3F0
330
342
100
AcDbEntity
  8
アジャスター_大昌H150_12
  6
CONTINUOUS
 62
     7
100
AcDbLine
 10
300.5568146955
 20
57.9273021508
 30
0.0
 11
300.5568146955
 21
57.1273021508
 31
0.0
  0
LINE
  5
3F1
330
342
100
AcDbEntity
  8
アジャスター_大昌H150_12
  6
CONTINUOUS
 62
     7
100
AcDbLine
 10
300.4641095972
 20
57.9273021508
 30
0.0
 11
300.5568146955
 21
57.9273021508
 31
0.0
  0
LINE
  5
3F2
330
342
100
AcDbEntity
  8
アジャスター_大昌H150_12
  6
CONTINUOUS
 62
     7
100
AcDbLine
 10
300.4165324091
 20
57.1273021508
 30
0.0
 11
300.410679355
 21
57.1273021508
 31
0.0
  0
LINE
  5
3F3
330
342
100
AcDbEntity
  8
アジャスター_大昌H150_12
  6
CONTINUOUS
 62
     7
100
AcDbLine
 10
300.4165324091
 20
57.9273021508
 30
0.0
 11
300.4165324091
 21
57.1273021508
 31
0.0
  0
LINE
  5
3F4
330
342
100
AcDbEntity
  8
アジャスター_大昌H150_12
  6
CONTINUOUS
 62
     7
100
AcDbLine
 10
300.4165324091
 20
57.9273021508
 30
0.0
 11
300.410679355
 21
57.9273021508
 31
0.0
  0
LINE
  5
3F5
330
342
100
AcDbEntity
  8
アジャスター_大昌H150_12
  6
CONTINUOUS
 62
     7
100
AcDbLine
 10
302.835679355
 20
58.0273021508
 30
0.0
 11
302.835679355
 21
59.0773021508
 31
0.0
  0
LINE
  5
3F6
330
342
100
AcDbEntity
  8
アジャスター_大昌H150_12
  6
CONTINUOUS
 62
     7
100
AcDbLine
 10
302.835679355
 20
59.6773021508
 30
0.0
 11
302.835679355
 21
60.8273021508
 31
0.0
  0
LINE
  5
3F7
330
342
100
AcDbEntity
  8
アジャスター_大昌H150_12
  6
CONTINUOUS
 62
     7
100
AcDbLine
 10
301.835679355
 20
60.8273021508
 30
0.0
 11
301.835679355
 21
59.6773021508
 31
0.0
  0
LINE
  5
3F8
330
342
100
AcDbEntity
  8
アジャスター_大昌H150_12
  6
CONTINUOUS
 62
     7
100
AcDbLine
 10
301.835679355
 20
59.0773021508
 30
0.0
 11
301.835679355
 21
58.0273021508
 31
0.0
  0
ARC
  5
3F9
330
342
100
AcDbEntity
  8
アジャスター_大昌H150_12
  6
CONTINUOUS
 62
     7
100
AcDbCircle
 10
300.510679355
 20
57.1273021508
 30
0.0
 40
0.1000000000000001
100
AcDbArc
 50
180.0
 51
270.0
  0
ARC
  5
3FA
330
342
100
AcDbEntity
  8
アジャスター_大昌H150_12
  6
CONTINUOUS
 62
     7
100
AcDbCircle
 10
304.160679355
 20
57.1273021508
 30
0.0
 40
0.1
100
AcDbArc
 50
270.0
 51
0.0
  0
LINE
  5
3FB
330
342
100
AcDbEntity
  8
アジャスター_大昌H150_12
  6
CONTINUOUS
 62
     7
100
AcDbLine
 10
304.260679355
 20
57.9273021508
 30
0.0
 11
304.260679355
 21
58.0273021508
 31
0.0
  0
LINE
  5
3FC
330
342
100
AcDbEntity
  8
アジャスター_大昌H150_12
  6
CONTINUOUS
 62
     7
100
AcDbLine
 10
300.410679355
 20
58.0273021508
 30
0.0
 11
300.410679355
 21
57.9273021508
 31
0.0
  0
LINE
  5
3FD
330
342
100
AcDbEntity
  8
ﾐﾗｰ支柱カバー160803_ﾃ
  6
CONTINUOUS
 62
     7
100
AcDbLine
 10
361.7983366155
 20
207.5285053269
 30
0.0
 11
303.9578093722
 21
67.8891200015
 31
0.0
  0
LINE
  5
3FE
330
342
100
AcDbEntity
  8
ﾐﾗｰ支柱カバー160803_ﾃ
  6
CONTINUOUS
 62
     7
100
AcDbLine
 10
366.2308220428
 20
207.5285053269
 30
0.0
 11
362.6005851
 21
207.5285053269
 31
0.0
  0
ELLIPSE
  5
3FF
330
342
100
AcDbEntity
  8
ﾐﾗｰ支柱カバー160803_ﾃ
  6
CONTINUOUS
 62
     7
100
AcDbEllipse
 10
308.4000252835
 20
67.8585053269
 30
0.0
 11
0.02157344651713897
 21
-0.0004478163481203001
 31
0.0
210
0.0
220
0.0
230
1.0
 40
0.089986861
 41
3.106503038891061
 42
3.368302426747523
  0
LINE
  5
400
330
342
100
AcDbEntity
  8
ﾐﾗｰ支柱カバー160803_ﾃ
  6
CONTINUOUS
 62
     7
100
AcDbLine
 10
304.7697883406
 20
67.8585053269
 30
0.0
 11
304.7506589312
 21
67.8664289878
 31
0.0
  0
LINE
  5
401
330
342
100
AcDbEntity
  8
ﾐﾗｰ支柱カバー160803_ﾃ
  6
CONTINUOUS
 62
     7
100
AcDbLine
 10
304.7506589312
 20
67.8664289878
 30
0.0
 11
308.380895874
 21
67.8664289878
 31
0.0
  0
LINE
  5
402
330
342
100
AcDbEntity
  8
ﾐﾗｰ支柱カバー160803_ﾃ
  6
CONTINUOUS
 62
     7
100
AcDbLine
 10
304.7697883406
 20
67.8585053269
 30
0.0
 11
308.3789948173
 21
67.8585053269
 31
0.0
  0
LINE
  5
403
330
342
100
AcDbEntity
  8
ﾐﾗｰ支柱カバー160803_ﾃ
  6
CONTINUOUS
 62
     7
100
AcDbLine
 10
308.3794074377
 20
67.8595014806
 30
0.0
 11
308.3789948173
 21
67.8585053269
 31
0.0
  0
LINE
  5
404
330
342
100
AcDbEntity
  8
ﾐﾗｰ支柱カバー160803_ﾃ
  6
CONTINUOUS
 62
     7
100
AcDbLine
 10
308.4000252835
 20
67.8585053269
 30
0.0
 11
316.8368891388
 21
67.8585053269
 31
0.0
  0
LINE
  5
405
330
342
100
AcDbEntity
  8
ﾐﾗｰ支柱カバー160803_ﾃ
  6
CONTINUOUS
 62
     7
100
AcDbLine
 10
308.4000252835
 20
67.8585053269
 30
0.0
 11
308.380895874
 21
67.8664289878
 31
0.0
  0
LINE
  5
406
330
342
100
AcDbEntity
  8
ﾐﾗｰ支柱カバー160803_ﾃ
  6
CONTINUOUS
 62
     7
100
AcDbLine
 10
366.2308220428
 20
207.5285053269
 30
0.0
 11
366.2419168148
 21
207.5284708454
 31
0.0
  0
LINE
  5
407
330
342
100
AcDbEntity
  8
ﾐﾗｰ支柱カバー160803_ﾃ
  6
CONTINUOUS
 62
     7
100
AcDbLine
 10
366.2419168148
 20
207.5284708454
 30
0.0
 11
366.2532335401
 21
207.5285053269
 31
0.0
  0
SPLINE
  5
408
330
342
100
AcDbEntity
  8
ﾐﾗｰ支柱カバー160803_ﾃ
  6
CONTINUOUS
 62
     7
100
AcDbSpline
210
0.0
220
0.0
230
1.0
 70
     8
 71
     3
 72
    14
 73
    10
 74
     0
 42
0.0000001134232523
 43
0.0000000001
 40
0.0
 40
0.0
 40
0.0
 40
0.0
 40
0.25
 40
0.25
 40
0.5
 40
0.5
 40
0.75
 40
0.75
 40
1.0
 40
1.0
 40
1.0
 40
1.0
 10
316.922466591361
 20
67.85850532691566
 30
0.0
 10
316.9215671549744
 20
67.85613754391673
 30
0.0
 10
316.9187215441372
 20
67.85450996611509
 30
0.0
 10
316.9094304405452
 20
67.85262135449777
 30
0.0
 10
316.9029880489643
 20
67.85235960409396
 30
0.0
 10
316.8873450790588
 20
67.85288384014353
 30
0.0
 10
316.8781499479159
 20
67.85366775740674
 30
0.0
 10
316.8582627966288
 20
67.85580420672389
 30
0.0
 10
316.847579714248
 20
67.85715380507723
 30
0.0
 10
316.8368891387727
 20
67.85850532691566
 30
0.0
  0
ARC
  5
409
330
342
100
AcDbEntity
  8
ﾐﾗｰ支柱カバー160803_ﾃ
  6
CONTINUOUS
 62
     7
100
AcDbCircle
 10
304.6551312995
 20
78.3914594987
 30
0.0
 40
10.52546401756741
100
AcDbArc
 50
266.2013182014
 51
270.5200155788
  0
ARC
  5
40A
330
342
100
AcDbEntity
  8
ﾐﾗｰ支柱カバー160803_ﾃ
  6
CONTINUOUS
 62
     7
100
AcDbCircle
 10
362.1994608577
 20
364.4450235863
 30
0.0
 40
156.91703095367
100
AcDbArc
 50
269.8535356485
 51
270.1464643515
  0
ARC
  5
40B
330
342
100
AcDbEntity
  8
ﾐﾗｰ支柱カバー160803_ﾃ
  6
CONTINUOUS
 62
     7
100
AcDbCircle
 10
304.4007540377
 20
77.2360375099
 30
0.0
 40
9.384790682795654
100
AcDbArc
 50
267.7503303187
 51
272.2535996414
  0
LINE
  5
40C
330
342
100
AcDbEntity
  8
ﾐﾗｰ支柱カバー160803_ﾃ
  6
CONTINUOUS
 62
     7
100
AcDbLine
 10
369.5494803189
 20
206.4000967699
 30
0.0
 11
316.9224665914
 21
67.8585053269
 31
0.0
  0
LINE
  5
40D
330
342
100
AcDbEntity
  8
ﾐﾗｰ支柱カバー160803_ﾃ
  6
CONTINUOUS
 62
     7
100
AcDbLine
 10
369.5494803189
 20
206.4000967699
 30
0.0
 11
369.4746942648
 21
206.4285053269
 31
0.0
  0
LINE
  5
40E
330
342
100
AcDbEntity
  8
ﾐﾗｰ支柱カバー160803_ﾃ
  6
CONTINUOUS
 62
     7
100
AcDbLine
 10
369.4746942648
 20
207.0285053269
 30
0.0
 11
369.4746942648
 21
206.4285053269
 31
0.0
  0
LINE
  5
40F
330
342
100
AcDbEntity
  8
ﾐﾗｰ支柱カバー160803_ﾃ
  6
CONTINUOUS
 62
     7
100
AcDbLine
 10
368.9746942648
 20
207.5285053269
 30
0.0
 11
366.2532335401
 21
207.5285053269
 31
0.0
  0
ARC
  5
410
330
342
100
AcDbEntity
  8
ﾐﾗｰ支柱カバー160803_ﾃ
  6
CONTINUOUS
 62
     7
100
AcDbCircle
 10
368.9746942648
 20
207.0285053269
 30
0.0
 40
0.5000000000000117
100
AcDbArc
 50
0.0
 51
90.0
  0
LINE
  5
411
330
342
100
AcDbEntity
  8
ﾐﾗｰ支柱カバー160803_ﾃ
  6
CONTINUOUS
 62
     7
100
AcDbLine
 10
303.9585962482
 20
67.8887411781
 30
0.0
 11
304.0324433609
 21
67.8581526343
 31
0.0
  0
ARC
  5
413
330
342
100
AcDbEntity
  8
ﾐﾗｰ支柱上蓋150407_ﾃﾞ
  6
CONTINUOUS
 62
     7
100
AcDbCircle
 10
369.0125450668
 20
207.0685053269
 30
0.0
 40
0.4600000000000049
100
AcDbArc
 50
0.0
 51
90.0
  0
LINE
  5
414
330
342
100
AcDbEntity
  8
ﾐﾗｰ転点防止金具_前_1608
  6
CONTINUOUS
 62
     7
100
AcDbLine
 10
305.7573913553
 20
66.7732376077
 30
0.0
 11
300.935679355
 21
64.263213213
 31
0.0
  0
LINE
  5
415
330
342
100
AcDbEntity
  8
ﾐﾗｰ転点防止金具_前_1608
  6
CONTINUOUS
 62
     7
100
AcDbLine
 10
305.4803421874
 20
67.3054441076
 30
0.0
 11
300.658630187
 21
64.7954197129
 31
0.0
  0
LINE
  5
416
330
342
100
AcDbEntity
  8
ﾐﾗｰ転点防止金具_前_1608
  6
CONTINUOUS
 62
     7
100
AcDbLine
 10
300.935679355
 20
64.263213213
 30
0.0
 11
300.935679355
 21
59.6773021508
 31
0.0
  0
LINE
  5
417
330
342
100
AcDbEntity
  8
ﾐﾗｰ転点防止金具_前_1608
  6
CONTINUOUS
 62
     7
100
AcDbLine
 10
300.335679355
 20
64.263213213
 30
0.0
 11
300.335679355
 21
59.6773021508
 31
0.0
  0
ARC
  5
418
330
342
100
AcDbEntity
  8
ﾐﾗｰ転点防止金具_前_1608
  6
CONTINUOUS
 62
     7
100
AcDbCircle
 10
300.935679355
 20
64.263213213
 30
0.0
 40
0.6000000000000044
100
AcDbArc
 50
117.5
 51
180.0
  0
ARC
  5
419
330
342
100
AcDbEntity
  8
ﾐﾗｰ転点防止金具_前_1608
  6
CONTINUOUS
 62
     7
100
AcDbCircle
 10
305.4803421874
 20
67.3054441076
 30
0.0
 40
0.6000000000000002
100
AcDbArc
 50
297.5
 51
337.5
  0
ARC
  5
41A
330
342
100
AcDbEntity
  8
ﾐﾗｰ転点防止金具_前_1608
  6
CONTINUOUS
 62
     7
100
AcDbCircle
 10
300.935679355
 20
59.6773021508
 30
0.0
 40
0.5999999999999999
100
AcDbArc
 50
180.0
 51
270.0
  0
LINE
  5
41B
330
342
100
AcDbEntity
  8
ﾐﾗｰ転点防止金具_前_1608
  6
CONTINUOUS
 62
     7
100
AcDbLine
 10
305.6716839036
 20
67.7673838738
 30
0.0
 11
305.4803421874
 21
67.3054441076
 31
0.0
  0
LINE
  5
41C
330
342
100
AcDbEntity
  8
ﾐﾗｰ転点防止金具_前_1608
  6
CONTINUOUS
 62
     7
100
AcDbLine
 10
306.2260116231
 20
67.5377738144
 30
0.0
 11
306.0346699069
 21
67.0758340482
 31
0.0
  0
LINE
  5
41D
330
342
100
AcDbEntity
  8
ﾐﾗｰ転点防止金具_前_1608
  6
CONTINUOUS
 62
     7
100
AcDbLine
 10
305.6716839036
 20
67.7673838738
 30
0.0
 11
305.7094276453
 21
67.8585053269
 31
0.0
  0
LINE
  5
41E
330
342
100
AcDbEntity
  8
ﾐﾗｰ転点防止金具_前_1608
  6
CONTINUOUS
 62
     7
100
AcDbLine
 10
305.6716839036
 20
67.7673838738
 30
0.0
 11
306.2260116231
 21
67.5377738144
 31
0.0
  0
LINE
  5
41F
330
342
100
AcDbEntity
  8
ﾐﾗｰ転点防止金具_前_1608
  6
CONTINUOUS
 62
     7
100
AcDbLine
 10
303.835679355
 20
59.0773021508
 30
0.0
 11
303.835679355
 21
59.6773021508
 31
0.0
  0
LINE
  5
420
330
342
100
AcDbEntity
  8
ﾐﾗｰ転点防止金具_前_1608
  6
CONTINUOUS
 62
     7
100
AcDbLine
 10
303.335679355
 20
59.6773021508
 30
0.0
 11
300.935679355
 21
59.6773021508
 31
0.0
  0
LINE
  5
421
330
342
100
AcDbEntity
  8
ﾐﾗｰ転点防止金具_前_1608
  6
CONTINUOUS
 62
     7
100
AcDbLine
 10
303.835679355
 20
59.6773021508
 30
0.0
 11
303.335679355
 21
59.6773021508
 31
0.0
  0
LINE
  5
422
330
342
100
AcDbEntity
  8
ﾐﾗｰ転点防止金具_前_1608
  6
CONTINUOUS
 62
     7
100
AcDbLine
 10
303.335679355
 20
59.0773021508
 30
0.0
 11
300.935679355
 21
59.0773021508
 31
0.0
  0
LINE
  5
423
330
342
100
AcDbEntity
  8
ﾐﾗｰ転点防止金具_前_1608
  6
CONTINUOUS
 62
     7
100
AcDbLine
 10
303.335679355
 20
59.0773021508
 30
0.0
 11
303.835679355
 21
59.0773021508
 31
0.0
  0
LINE
  5
424
330
342
100
AcDbEntity
  8
ﾐﾗｰ転点防止金具_前_1608
  6
CONTINUOUS
 62
     7
100
AcDbLine
 10
307.7042188751
 20
66.9254803226
 30
0.0
 11
306.2260116231
 21
67.5377738144
 31
0.0
  0
LINE
  5
425
330
342
100
AcDbEntity
  8
ﾐﾗｰ転点防止金具_前_1608
  6
CONTINUOUS
 62
     7
100
AcDbLine
 10
308.307168926
 20
67.8585053269
 30
0.0
 11
307.9655314681
 21
67.0337195427
 31
0.0
  0
ARC
  5
426
330
342
100
AcDbEntity
  8
ﾐﾗｰ転点防止金具_前_1608
  6
CONTINUOUS
 62
     7
100
AcDbCircle
 10
307.7807555616
 20
67.1102562291
 30
0.0
 40
0.1999999999999942
100
AcDbArc
 50
247.5
 51
337.5
  0
LINE
  5
427
330
342
100
AcDbEntity
  8
平座金_並形__6_13_1_0
  6
CONTINUOUS
 62
     7
100
AcDbLine
 10
354.8868891388
 20
67.8085053269
 30
0.0
 11
353.5868891388
 21
67.8085053269
 31
0.0
  0
LINE
  5
428
330
342
100
AcDbEntity
  8
平座金_並形__6_13_1_0
  6
CONTINUOUS
 62
     7
100
AcDbLine
 10
354.8868891388
 20
67.8085053269
 30
0.0
 11
354.8868891388
 21
67.8585053269
 31
0.0
  0
LINE
  5
429
330
342
100
AcDbEntity
  8
平座金_並形__6_13_1_0
  6
CONTINUOUS
 62
     7
100
AcDbLine
 10
353.5868891388
 20
67.8585053269
 30
0.0
 11
353.5868891388
 21
67.8085053269
 31
0.0
  0
LINE
  5
42A
330
342
100
AcDbEntity
  8
バネ座金_2号__呼び_6_6_
  6
CONTINUOUS
 62
     7
100
AcDbLine
 10
354.8468891388
 20
67.6585053269
 30
0.0
 11
353.6268891388
 21
67.6585053269
 31
0.0
  0
LINE
  5
42B
330
342
100
AcDbEntity
  8
バネ座金_2号__呼び_6_6_
  6
CONTINUOUS
 62
     7
100
AcDbLine
 10
353.6268891388
 20
67.8085053269
 30
0.0
 11
353.6268891388
 21
67.6585053269
 31
0.0
  0
LINE
  5
42C
330
342
100
AcDbEntity
  8
バネ座金_2号__呼び_6_6_
  6
CONTINUOUS
 62
     7
100
AcDbLine
 10
354.8468891388
 20
67.6585053269
 30
0.0
 11
354.8468891388
 21
67.8085053269
 31
0.0
  0
LINE
  5
42D
330
342
100
AcDbEntity
  8
六角穴付キャップボルト_M6_1
  6
CONTINUOUS
 62
     7
100
AcDbLine
 10
354.6618891388
 20
67.0585053269
 30
0.0
 11
353.8118891388
 21
67.0585053269
 31
0.0
  0
LINE
  5
42E
330
342
100
AcDbEntity
  8
六角穴付キャップボルト_M6_1
  6
CONTINUOUS
 62
     7
100
AcDbLine
 10
354.7368891388
 20
67.1018065971
 30
0.0
 11
353.7368891388
 21
67.1018065971
 31
0.0
  0
LINE
  5
42F
330
342
100
AcDbEntity
  8
六角穴付キャップボルト_M6_1
  6
CONTINUOUS
 62
     7
100
AcDbLine
 10
353.7368891388
 20
67.6585053269
 30
0.0
 11
353.7368891388
 21
67.1018065971
 31
0.0
  0
LINE
  5
430
330
342
100
AcDbEntity
  8
六角穴付キャップボルト_M6_1
  6
CONTINUOUS
 62
     7
100
AcDbLine
 10
354.7368891388
 20
67.1018065971
 30
0.0
 11
354.7368891388
 21
67.6585053269
 31
0.0
  0
LINE
  5
431
330
342
100
AcDbEntity
  8
六角穴付キャップボルト_M6_1
  6
CONTINUOUS
 62
     7
100
AcDbLine
 10
353.7368891388
 20
67.1018065971
 30
0.0
 11
353.8118891388
 21
67.0585053269
 31
0.0
  0
LINE
  5
432
330
342
100
AcDbEntity
  8
六角穴付キャップボルト_M6_1
  6
CONTINUOUS
 62
     7
100
AcDbLine
 10
354.6618891388
 20
67.0585053269
 30
0.0
 11
354.7368891388
 21
67.1018065971
 31
0.0
  0
LINE
  5
433
330
342
100
AcDbEntity
  8
平座金_並形__6_13_1_0
  6
CONTINUOUS
 62
     7
100
AcDbLine
 10
373.4868891388
 20
67.8085053269
 30
0.0
 11
372.1868891388
 21
67.8085053269
 31
0.0
  0
LINE
  5
434
330
342
100
AcDbEntity
  8
平座金_並形__6_13_1_0
  6
CONTINUOUS
 62
     7
100
AcDbLine
 10
373.4868891388
 20
67.8085053269
 30
0.0
 11
373.4868891388
 21
67.8585053269
 31
0.0
  0
LINE
  5
435
330
342
100
AcDbEntity
  8
平座金_並形__6_13_1_0
  6
CONTINUOUS
 62
     7
100
AcDbLine
 10
372.1868891388
 20
67.8585053269
 30
0.0
 11
372.1868891388
 21
67.8085053269
 31
0.0
  0
LINE
  5
436
330
342
100
AcDbEntity
  8
バネ座金_2号__呼び_6_6_
  6
CONTINUOUS
 62
     7
100
AcDbLine
 10
373.4468891388
 20
67.6585053269
 30
0.0
 11
372.2268891388
 21
67.6585053269
 31
0.0
  0
LINE
  5
437
330
342
100
AcDbEntity
  8
バネ座金_2号__呼び_6_6_
  6
CONTINUOUS
 62
     7
100
AcDbLine
 10
372.2268891388
 20
67.8085053269
 30
0.0
 11
372.2268891388
 21
67.6585053269
 31
0.0
  0
LINE
  5
438
330
342
100
AcDbEntity
  8
バネ座金_2号__呼び_6_6_
  6
CONTINUOUS
 62
     7
100
AcDbLine
 10
373.4468891388
 20
67.6585053269
 30
0.0
 11
373.4468891388
 21
67.8085053269
 31
0.0
  0
LINE
  5
439
330
342
100
AcDbEntity
  8
六角穴付キャップボルト_M6_1
  6
CONTINUOUS
 62
     7
100
AcDbLine
 10
373.2618891388
 20
67.0585053269
 30
0.0
 11
372.4118891388
 21
67.0585053269
 31
0.0
  0
LINE
  5
43A
330
342
100
AcDbEntity
  8
六角穴付キャップボルト_M6_1
  6
CONTINUOUS
 62
     7
100
AcDbLine
 10
373.3368891388
 20
67.1018065971
 30
0.0
 11
372.3368891388
 21
67.1018065971
 31
0.0
  0
LINE
  5
43B
330
342
100
AcDbEntity
  8
六角穴付キャップボルト_M6_1
  6
CONTINUOUS
 62
     7
100
AcDbLine
 10
372.3368891388
 20
67.6585053269
 30
0.0
 11
372.3368891388
 21
67.1018065971
 31
0.0
  0
LINE
  5
43C
330
342
100
AcDbEntity
  8
六角穴付キャップボルト_M6_1
  6
CONTINUOUS
 62
     7
100
AcDbLine
 10
373.3368891388
 20
67.1018065971
 30
0.0
 11
373.3368891388
 21
67.6585053269
 31
0.0
  0
LINE
  5
43D
330
342
100
AcDbEntity
  8
六角穴付キャップボルト_M6_1
  6
CONTINUOUS
 62
     7
100
AcDbLine
 10
372.3368891388
 20
67.1018065971
 30
0.0
 11
372.4118891388
 21
67.0585053269
 31
0.0
  0
LINE
  5
43E
330
342
100
AcDbEntity
  8
六角穴付キャップボルト_M6_1
  6
CONTINUOUS
 62
     7
100
AcDbLine
 10
373.2618891388
 20
67.0585053269
 30
0.0
 11
373.3368891388
 21
67.1018065971
 31
0.0
  0
LINE
  5
43F
330
342
100
AcDbEntity
  8
ベースパネル160803_ﾃﾞﾌ
  6
CONTINUOUS
 62
     7
100
AcDbLine
 10
381.4168891388
 20
72.5085053269
 30
0.0
 11
381.1768891388
 21
72.5085053269
 31
0.0
  0
ARC
  5
440
330
342
100
AcDbEntity
  8
ベースパネル160803_ﾃﾞﾌ
  6
CONTINUOUS
 62
     7
100
AcDbCircle
 10
381.4168891388
 20
72.3885053269
 30
0.0
 40
0.1199999999999979
100
AcDbArc
 50
59.581761724
 51
90.0
  0
LINE
  5
441
330
342
100
AcDbEntity
  8
アジャスター_大昌H150_12
  6
CONTINUOUS
 62
     7
100
AcDbLine
 10
381.6618891388
 20
58.0285053269
 30
0.0
 11
377.8118891388
 21
58.0285053269
 31
0.0
  0
LINE
  5
442
330
342
100
AcDbEntity
  8
アジャスター_大昌H150_12
  6
CONTINUOUS
 62
     7
100
AcDbLine
 10
380.2368891388
 20
60.8285053269
 30
0.0
 11
379.2368891388
 21
60.8285053269
 31
0.0
  0
LINE
  5
443
330
342
100
AcDbEntity
  8
アジャスター_大昌H150_12
  6
CONTINUOUS
 62
     7
100
AcDbLine
 10
381.6560360847
 20
57.1285053269
 30
0.0
 11
381.6618891388
 21
57.1285053269
 31
0.0
  0
LINE
  5
444
330
342
100
AcDbEntity
  8
アジャスター_大昌H150_12
  6
CONTINUOUS
 62
     7
100
AcDbLine
 10
377.9118891388
 20
57.0285053269
 30
0.0
 11
381.5618891388
 21
57.0285053269
 31
0.0
  0
LINE
  5
445
330
342
100
AcDbEntity
  8
アジャスター_大昌H150_12
  6
CONTINUOUS
 62
     7
100
AcDbLine
 10
381.6560360847
 20
57.9285053269
 30
0.0
 11
381.6560360847
 21
57.1285053269
 31
0.0
  0
LINE
  5
446
330
342
100
AcDbEntity
  8
アジャスター_大昌H150_12
  6
CONTINUOUS
 62
     7
100
AcDbLine
 10
381.6560360847
 20
57.9285053269
 30
0.0
 11
381.6618891388
 21
57.9285053269
 31
0.0
  0
LINE
  5
447
330
342
100
AcDbEntity
  8
アジャスター_大昌H150_12
  6
CONTINUOUS
 62
     7
100
AcDbLine
 10
381.5201201068
 20
57.9285053269
 30
0.0
 11
381.5201201068
 21
57.1285053269
 31
0.0
  0
LINE
  5
448
330
342
100
AcDbEntity
  8
アジャスター_大昌H150_12
  6
CONTINUOUS
 62
     7
100
AcDbLine
 10
381.5157537983
 20
57.1285053269
 30
0.0
 11
381.6084588966
 21
57.1285053269
 31
0.0
  0
LINE
  5
449
330
342
100
AcDbEntity
  8
アジャスター_大昌H150_12
  6
CONTINUOUS
 62
     7
100
AcDbLine
 10
381.5157537983
 20
57.9285053269
 30
0.0
 11
381.5157537983
 21
57.1285053269
 31
0.0
  0
LINE
  5
44A
330
342
100
AcDbEntity
  8
アジャスター_大昌H150_12
  6
CONTINUOUS
 62
     7
100
AcDbLine
 10
381.6084588966
 20
57.9285053269
 30
0.0
 11
381.6084588966
 21
57.1285053269
 31
0.0
  0
LINE
  5
44B
330
342
100
AcDbEntity
  8
アジャスター_大昌H150_12
  6
CONTINUOUS
 62
     7
100
AcDbLine
 10
381.5157537983
 20
57.9285053269
 30
0.0
 11
381.6084588966
 21
57.9285053269
 31
0.0
  0
LINE
  5
44C
330
342
100
AcDbEntity
  8
アジャスター_大昌H150_12
  6
CONTINUOUS
 62
     7
100
AcDbLine
 10
381.2537960032
 20
57.9285053269
 30
0.0
 11
381.2537960032
 21
57.1285053269
 31
0.0
  0
LINE
  5
44D
330
342
100
AcDbEntity
  8
アジャスター_大昌H150_12
  6
CONTINUOUS
 62
     7
100
AcDbLine
 10
381.2013438449
 20
57.1285053269
 30
0.0
 11
381.3776794206
 21
57.1285053269
 31
0.0
  0
LINE
  5
44E
330
342
100
AcDbEntity
  8
アジャスター_大昌H150_12
  6
CONTINUOUS
 62
     7
100
AcDbLine
 10
381.2013438449
 20
57.9285053269
 30
0.0
 11
381.2013438449
 21
57.1285053269
 31
0.0
  0
LINE
  5
44F
330
342
100
AcDbEntity
  8
アジャスター_大昌H150_12
  6
CONTINUOUS
 62
     7
100
AcDbLine
 10
381.3776794206
 20
57.9285053269
 30
0.0
 11
381.3776794206
 21
57.1285053269
 31
0.0
  0
LINE
  5
450
330
342
100
AcDbEntity
  8
アジャスター_大昌H150_12
  6
CONTINUOUS
 62
     7
100
AcDbLine
 10
381.2013438449
 20
57.9285053269
 30
0.0
 11
381.3776794206
 21
57.9285053269
 31
0.0
  0
LINE
  5
451
330
342
100
AcDbEntity
  8
アジャスター_大昌H150_12
  6
CONTINUOUS
 62
     7
100
AcDbLine
 10
380.8389864868
 20
57.9285053269
 30
0.0
 11
380.8389864868
 21
57.1285053269
 31
0.0
  0
LINE
  5
452
330
342
100
AcDbEntity
  8
アジャスター_大昌H150_12
  6
CONTINUOUS
 62
     7
100
AcDbLine
 10
380.7435828614
 20
57.1285053269
 30
0.0
 11
380.9862879597
 21
57.1285053269
 31
0.0
  0
LINE
  5
453
330
342
100
AcDbEntity
  8
アジャスター_大昌H150_12
  6
CONTINUOUS
 62
     7
100
AcDbLine
 10
380.7435828614
 20
57.9285053269
 30
0.0
 11
380.7435828614
 21
57.1285053269
 31
0.0
  0
LINE
  5
454
330
342
100
AcDbEntity
  8
アジャスター_大昌H150_12
  6
CONTINUOUS
 62
     7
100
AcDbLine
 10
380.9862879597
 20
57.9285053269
 30
0.0
 11
380.9862879597
 21
57.1285053269
 31
0.0
  0
LINE
  5
455
330
342
100
AcDbEntity
  8
アジャスター_大昌H150_12
  6
CONTINUOUS
 62
     7
100
AcDbLine
 10
380.7435828614
 20
57.9285053269
 30
0.0
 11
380.9862879597
 21
57.9285053269
 31
0.0
  0
LINE
  5
456
330
342
100
AcDbEntity
  8
アジャスター_大昌H150_12
  6
CONTINUOUS
 62
     7
100
AcDbLine
 10
380.3162960032
 20
57.9285053269
 30
0.0
 11
380.3162960032
 21
57.1285053269
 31
0.0
  0
LINE
  5
457
330
342
100
AcDbEntity
  8
アジャスター_大昌H150_12
  6
CONTINUOUS
 62
     7
100
AcDbLine
 10
380.1872796823
 20
57.1285053269
 30
0.0
 11
380.4725966372
 21
57.1285053269
 31
0.0
  0
LINE
  5
458
330
342
100
AcDbEntity
  8
アジャスター_大昌H150_12
  6
CONTINUOUS
 62
     7
100
AcDbLine
 10
380.1872796823
 20
57.9285053269
 30
0.0
 11
380.1872796823
 21
57.1285053269
 31
0.0
  0
LINE
  5
459
330
342
100
AcDbEntity
  8
アジャスター_大昌H150_12
  6
CONTINUOUS
 62
     7
100
AcDbLine
 10
380.4725966372
 20
57.9285053269
 30
0.0
 11
380.4725966372
 21
57.1285053269
 31
0.0
  0
LINE
  5
45A
330
342
100
AcDbEntity
  8
アジャスター_大昌H150_12
  6
CONTINUOUS
 62
     7
100
AcDbLine
 10
380.1872796823
 20
57.9285053269
 30
0.0
 11
380.4725966372
 21
57.9285053269
 31
0.0
  0
LINE
  5
45B
330
342
100
AcDbEntity
  8
アジャスター_大昌H150_12
  6
CONTINUOUS
 62
     7
100
AcDbLine
 10
379.7368891388
 20
57.9285053269
 30
0.0
 11
379.7368891388
 21
57.1285053269
 31
0.0
  0
LINE
  5
45C
330
342
100
AcDbEntity
  8
アジャスター_大昌H150_12
  6
CONTINUOUS
 62
     7
100
AcDbLine
 10
379.5868891388
 20
57.1285053269
 30
0.0
 11
379.8868891388
 21
57.1285053269
 31
0.0
  0
LINE
  5
45D
330
342
100
AcDbEntity
  8
アジャスター_大昌H150_12
  6
CONTINUOUS
 62
     7
100
AcDbLine
 10
379.5868891388
 20
57.9285053269
 30
0.0
 11
379.5868891388
 21
57.1285053269
 31
0.0
  0
LINE
  5
45E
330
342
100
AcDbEntity
  8
アジャスター_大昌H150_12
  6
CONTINUOUS
 62
     7
100
AcDbLine
 10
379.8868891388
 20
57.9285053269
 30
0.0
 11
379.8868891388
 21
57.1285053269
 31
0.0
  0
LINE
  5
45F
330
342
100
AcDbEntity
  8
アジャスター_大昌H150_12
  6
CONTINUOUS
 62
     7
100
AcDbLine
 10
379.5868891388
 20
57.9285053269
 30
0.0
 11
379.8868891388
 21
57.9285053269
 31
0.0
  0
LINE
  5
460
330
342
100
AcDbEntity
  8
アジャスター_大昌H150_12
  6
CONTINUOUS
 62
     7
100
AcDbLine
 10
379.1574822743
 20
57.9285053269
 30
0.0
 11
379.1574822743
 21
57.1285053269
 31
0.0
  0
LINE
  5
461
330
342
100
AcDbEntity
  8
アジャスター_大昌H150_12
  6
CONTINUOUS
 62
     7
100
AcDbLine
 10
379.0011816403
 20
57.1285053269
 30
0.0
 11
379.2864985952
 21
57.1285053269
 31
0.0
  0
LINE
  5
462
330
342
100
AcDbEntity
  8
アジャスター_大昌H150_12
  6
CONTINUOUS
 62
     7
100
AcDbLine
 10
379.0011816403
 20
57.9285053269
 30
0.0
 11
379.0011816403
 21
57.1285053269
 31
0.0
  0
LINE
  5
463
330
342
100
AcDbEntity
  8
アジャスター_大昌H150_12
  6
CONTINUOUS
 62
     7
100
AcDbLine
 10
379.2864985952
 20
57.9285053269
 30
0.0
 11
379.2864985952
 21
57.1285053269
 31
0.0
  0
LINE
  5
464
330
342
100
AcDbEntity
  8
アジャスター_大昌H150_12
  6
CONTINUOUS
 62
     7
100
AcDbLine
 10
379.0011816403
 20
57.9285053269
 30
0.0
 11
379.2864985952
 21
57.9285053269
 31
0.0
  0
LINE
  5
465
330
342
100
AcDbEntity
  8
アジャスター_大昌H150_12
  6
CONTINUOUS
 62
     7
100
AcDbLine
 10
378.6347917907
 20
57.9285053269
 30
0.0
 11
378.6347917907
 21
57.1285053269
 31
0.0
  0
LINE
  5
466
330
342
100
AcDbEntity
  8
アジャスター_大昌H150_12
  6
CONTINUOUS
 62
     7
100
AcDbLine
 10
378.4874903178
 20
57.1285053269
 30
0.0
 11
378.7301954161
 21
57.1285053269
 31
0.0
  0
LINE
  5
467
330
342
100
AcDbEntity
  8
アジャスター_大昌H150_12
  6
CONTINUOUS
 62
     7
100
AcDbLine
 10
378.4874903178
 20
57.9285053269
 30
0.0
 11
378.4874903178
 21
57.1285053269
 31
0.0
  0
LINE
  5
468
330
342
100
AcDbEntity
  8
アジャスター_大昌H150_12
  6
CONTINUOUS
 62
     7
100
AcDbLine
 10
378.7301954161
 20
57.9285053269
 30
0.0
 11
378.7301954161
 21
57.1285053269
 31
0.0
  0
LINE
  5
469
330
342
100
AcDbEntity
  8
アジャスター_大昌H150_12
  6
CONTINUOUS
 62
     7
100
AcDbLine
 10
378.4874903178
 20
57.9285053269
 30
0.0
 11
378.7301954161
 21
57.9285053269
 31
0.0
  0
LINE
  5
46A
330
342
100
AcDbEntity
  8
アジャスター_大昌H150_12
  6
CONTINUOUS
 62
     7
100
AcDbLine
 10
378.2199822743
 20
57.9285053269
 30
0.0
 11
378.2199822743
 21
57.1285053269
 31
0.0
  0
LINE
  5
46B
330
342
100
AcDbEntity
  8
アジャスター_大昌H150_12
  6
CONTINUOUS
 62
     7
100
AcDbLine
 10
378.096098857
 20
57.1285053269
 30
0.0
 11
378.2724344327
 21
57.1285053269
 31
0.0
  0
LINE
  5
46C
330
342
100
AcDbEntity
  8
アジャスター_大昌H150_12
  6
CONTINUOUS
 62
     7
100
AcDbLine
 10
378.096098857
 20
57.9285053269
 30
0.0
 11
378.096098857
 21
57.1285053269
 31
0.0
  0
LINE
  5
46D
330
342
100
AcDbEntity
  8
アジャスター_大昌H150_12
  6
CONTINUOUS
 62
     7
100
AcDbLine
 10
378.2724344327
 20
57.9285053269
 30
0.0
 11
378.2724344327
 21
57.1285053269
 31
0.0
  0
LINE
  5
46E
330
342
100
AcDbEntity
  8
アジャスター_大昌H150_12
  6
CONTINUOUS
 62
     7
100
AcDbLine
 10
378.096098857
 20
57.9285053269
 30
0.0
 11
378.2724344327
 21
57.9285053269
 31
0.0
  0
LINE
  5
46F
330
342
100
AcDbEntity
  8
アジャスター_大昌H150_12
  6
CONTINUOUS
 62
     7
100
AcDbLine
 10
377.9536581707
 20
57.9285053269
 30
0.0
 11
377.9536581707
 21
57.1285053269
 31
0.0
  0
LINE
  5
470
330
342
100
AcDbEntity
  8
アジャスター_大昌H150_12
  6
CONTINUOUS
 62
     7
100
AcDbLine
 10
377.865319381
 20
57.1285053269
 30
0.0
 11
377.9580244793
 21
57.1285053269
 31
0.0
  0
LINE
  5
471
330
342
100
AcDbEntity
  8
アジャスター_大昌H150_12
  6
CONTINUOUS
 62
     7
100
AcDbLine
 10
377.865319381
 20
57.9285053269
 30
0.0
 11
377.865319381
 21
57.1285053269
 31
0.0
  0
LINE
  5
472
330
342
100
AcDbEntity
  8
アジャスター_大昌H150_12
  6
CONTINUOUS
 62
     7
100
AcDbLine
 10
377.9580244793
 20
57.9285053269
 30
0.0
 11
377.9580244793
 21
57.1285053269
 31
0.0
  0
LINE
  5
473
330
342
100
AcDbEntity
  8
アジャスター_大昌H150_12
  6
CONTINUOUS
 62
     7
100
AcDbLine
 10
377.865319381
 20
57.9285053269
 30
0.0
 11
377.9580244793
 21
57.9285053269
 31
0.0
  0
LINE
  5
474
330
342
100
AcDbEntity
  8
アジャスター_大昌H150_12
  6
CONTINUOUS
 62
     7
100
AcDbLine
 10
377.8177421929
 20
57.1285053269
 30
0.0
 11
377.8118891388
 21
57.1285053269
 31
0.0
  0
LINE
  5
475
330
342
100
AcDbEntity
  8
アジャスター_大昌H150_12
  6
CONTINUOUS
 62
     7
100
AcDbLine
 10
377.8177421929
 20
57.9285053269
 30
0.0
 11
377.8177421929
 21
57.1285053269
 31
0.0
  0
LINE
  5
476
330
342
100
AcDbEntity
  8
アジャスター_大昌H150_12
  6
CONTINUOUS
 62
     7
100
AcDbLine
 10
377.8177421929
 20
57.9285053269
 30
0.0
 11
377.8118891388
 21
57.9285053269
 31
0.0
  0
LINE
  5
477
330
342
100
AcDbEntity
  8
アジャスター_大昌H150_12
  6
CONTINUOUS
 62
     7
100
AcDbLine
 10
380.2368891388
 20
58.0285053269
 30
0.0
 11
380.2368891388
 21
59.0085053269
 31
0.0
  0
LINE
  5
478
330
342
100
AcDbEntity
  8
アジャスター_大昌H150_12
  6
CONTINUOUS
 62
     7
100
AcDbLine
 10
380.2368891388
 20
59.6085053269
 30
0.0
 11
380.2368891388
 21
60.8285053269
 31
0.0
  0
LINE
  5
479
330
342
100
AcDbEntity
  8
アジャスター_大昌H150_12
  6
CONTINUOUS
 62
     7
100
AcDbLine
 10
379.2368891388
 20
60.8285053269
 30
0.0
 11
379.2368891388
 21
59.6085053269
 31
0.0
  0
LINE
  5
47A
330
342
100
AcDbEntity
  8
アジャスター_大昌H150_12
  6
CONTINUOUS
 62
     7
100
AcDbLine
 10
379.2368891388
 20
59.0085053269
 30
0.0
 11
379.2368891388
 21
58.0285053269
 31
0.0
  0
ARC
  5
47B
330
342
100
AcDbEntity
  8
アジャスター_大昌H150_12
  6
CONTINUOUS
 62
     7
100
AcDbCircle
 10
377.9118891388
 20
57.1285053269
 30
0.0
 40
0.1000000000000001
100
AcDbArc
 50
180.0
 51
270.0
  0
ARC
  5
47C
330
342
100
AcDbEntity
  8
アジャスター_大昌H150_12
  6
CONTINUOUS
 62
     7
100
AcDbCircle
 10
381.5618891388
 20
57.1285053269
 30
0.0
 40
0.1
100
AcDbArc
 50
270.0
 51
0.0
  0
LINE
  5
47D
330
342
100
AcDbEntity
  8
アジャスター_大昌H150_12
  6
CONTINUOUS
 62
     7
100
AcDbLine
 10
381.6618891388
 20
57.9285053269
 30
0.0
 11
381.6618891388
 21
58.0285053269
 31
0.0
  0
LINE
  5
47E
330
342
100
AcDbEntity
  8
アジャスター_大昌H150_12
  6
CONTINUOUS
 62
     7
100
AcDbLine
 10
377.8118891388
 20
58.0285053269
 30
0.0
 11
377.8118891388
 21
57.9285053269
 31
0.0
  0
LINE
  5
480
330
342
100
AcDbEntity
  8
転点防止固定金具150407_0
  6
CONTINUOUS
 62
     7
100
AcDbLine
 10
377.9868891388
 20
67.8585053269
 30
0.0
 11
377.9868891388
 21
65.2585053269
 31
0.0
  0
LINE
  5
481
330
342
100
AcDbEntity
  8
転点防止固定金具150407_0
  6
CONTINUOUS
 62
     7
100
AcDbLine
 10
378.4368891388
 20
67.8585053269
 30
0.0
 11
378.4368891388
 21
65.2585053269
 31
0.0
  0
LINE
  5
482
330
342
100
AcDbEntity
  8
転点防止固定金具150407_0
  6
CONTINUOUS
 62
     7
100
AcDbLine
 10
378.4368891388
 20
65.0585053269
 30
0.0
 11
377.9868891388
 21
65.0585053269
 31
0.0
  0
LINE
  5
483
330
342
100
AcDbEntity
  8
転点防止固定金具150407_0
  6
CONTINUOUS
 62
     7
100
AcDbLine
 10
378.4368891388
 20
65.2585053269
 30
0.0
 11
378.4368891388
 21
65.0585053269
 31
0.0
  0
LINE
  5
484
330
342
100
AcDbEntity
  8
転点防止固定金具150407_0
  6
CONTINUOUS
 62
     7
100
AcDbLine
 10
377.9868891388
 20
65.0585053269
 30
0.0
 11
377.9868891388
 21
65.2585053269
 31
0.0
  0
LINE
  5
486
330
342
100
AcDbEntity
  8
平座金_並形__8_18_1_6
  6
CONTINUOUS
 62
     7
100
AcDbLine
 10
379.3968891388
 20
65.9085053269
 30
0.0
 11
379.3968891388
 21
67.7085053269
 31
0.0
  0
LINE
  5
487
330
342
100
AcDbEntity
  8
平座金_並形__8_18_1_6
  6
CONTINUOUS
 62
     7
100
AcDbLine
 10
379.2368891388
 20
65.9085053269
 30
0.0
 11
379.3968891388
 21
65.9085053269
 31
0.0
  0
LINE
  5
488
330
342
100
AcDbEntity
  8
平座金_並形__8_18_1_6
  6
CONTINUOUS
 62
     7
100
AcDbLine
 10
379.3968891388
 20
67.7085053269
 30
0.0
 11
379.2368891388
 21
67.7085053269
 31
0.0
  0
LINE
  5
48A
330
342
100
AcDbEntity
  8
Uナット130620_M8__0
  6
CONTINUOUS
 62
     7
100
AcDbLine
 10
377.3768891388
 20
66.1585053269
 30
0.0
 11
377.3768891388
 21
66.2455888145
 31
0.0
  0
LINE
  5
48B
330
342
100
AcDbEntity
  8
Uナット130620_M8__0
  6
CONTINUOUS
 62
     7
100
AcDbLine
 10
377.3768891388
 20
67.3714218394
 30
0.0
 11
377.3768891388
 21
67.4585053269
 31
0.0
  0
LINE
  5
48C
330
342
100
AcDbEntity
  8
Uナット130620_M8__0
  6
CONTINUOUS
 62
     7
100
AcDbLine
 10
377.3768891388
 20
66.2455888145
 30
0.0
 11
377.3768891388
 21
66.8085053269
 31
0.0
  0
LINE
  5
48D
330
342
100
AcDbEntity
  8
Uナット130620_M8__0
  6
CONTINUOUS
 62
     7
100
AcDbLine
 10
377.4349447971
 20
67.1837830019
 30
0.0
 11
377.9288334804
 21
67.1837830019
 31
0.0
  0
LINE
  5
48E
330
342
100
AcDbEntity
  8
Uナット130620_M8__0
  6
CONTINUOUS
 62
     7
100
AcDbLine
 10
377.4349447971
 20
66.4332276519
 30
0.0
 11
377.9288334804
 21
66.4332276519
 31
0.0
  0
LINE
  5
48F
330
342
100
AcDbEntity
  8
Uナット130620_M8__0
  6
CONTINUOUS
 62
     7
100
AcDbLine
 10
377.4349447971
 20
66.057949977
 30
0.0
 11
377.9288334804
 21
66.057949977
 31
0.0
  0
LINE
  5
490
330
342
100
AcDbEntity
  8
Uナット130620_M8__0
  6
CONTINUOUS
 62
     7
100
AcDbLine
 10
377.4349447971
 20
67.5590606769
 30
0.0
 11
377.9288334804
 21
67.5590606769
 31
0.0
  0
LINE
  5
491
330
342
100
AcDbEntity
  8
Uナット130620_M8__0
  6
CONTINUOUS
 62
     7
100
AcDbLine
 10
377.3768891388
 20
67.3714218394
 30
0.0
 11
377.3768891388
 21
66.8085053269
 31
0.0
  0
SPLINE
  5
492
330
342
100
AcDbEntity
  8
Uナット130620_M8__0
  6
CONTINUOUS
 62
     7
100
AcDbSpline
210
0.0
220
0.0
230
1.0
 70
     8
 71
     3
 72
    10
 73
     6
 74
     0
 42
0.0000000262228226
 43
0.0000000001
 40
0.0
 40
0.0
 40
0.0
 40
0.0
 40
0.5
 40
0.5
 40
1.0
 40
1.0
 40
1.0
 40
1.0
 10
377.3768891387728
 20
66.80850532691542
 30
0.0
 10
377.3768891387728
 20
66.87196376526951
 30
0.0
 10
377.3823466043018
 20
66.93496884950596
 30
0.0
 10
377.4025432720622
 20
67.06020797993382
 30
0.0
 10
377.4173129990418
 20
67.12270466164398
 30
0.0
 10
377.4349447971329
 20
67.1837830018887
 30
0.0
  0
LINE
  5
493
330
342
100
AcDbEntity
  8
Uナット130620_M8__0
  6
CONTINUOUS
 62
     7
100
AcDbLine
 10
377.4349447971
 20
67.1837830019
 30
0.0
 11
377.3768891388
 21
67.3714218394
 31
0.0
  0
ARC
  5
494
330
342
100
AcDbEntity
  8
Uナット130620_M8__0
  6
CONTINUOUS
 62
     7
100
AcDbCircle
 10
377.7435806117
 20
67.3607677632
 30
0.0
 40
0.3668462152416064
100
AcDbArc
 50
147.2799906267
 51
178.3357619053
  0
LINE
  5
495
330
342
100
AcDbEntity
  8
Uナット130620_M8__0
  6
CONTINUOUS
 62
     7
100
AcDbLine
 10
377.4349447971
 20
66.057949977
 30
0.0
 11
377.3768891388
 21
66.2455888145
 31
0.0
  0
ARC
  5
496
330
342
100
AcDbEntity
  8
Uナット130620_M8__0
  6
CONTINUOUS
 62
     7
100
AcDbCircle
 10
377.7435806117
 20
66.2349347382
 30
0.0
 40
0.3668462152415015
100
AcDbArc
 50
147.2799906267
 51
178.3357619053
  0
SPLINE
  5
497
330
342
100
AcDbEntity
  8
Uナット130620_M8__0
  6
CONTINUOUS
 62
     7
100
AcDbSpline
210
0.0
220
0.0
230
1.0
 70
     8
 71
     3
 72
    10
 73
     6
 74
     0
 42
0.0000000262228365
 43
0.0000000001
 40
0.0
 40
0.0
 40
0.0
 40
0.0
 40
0.5
 40
0.5
 40
1.0
 40
1.0
 40
1.0
 40
1.0
 10
377.4349447971329
 20
66.43322765194219
 30
0.0
 10
377.4174251205681
 20
66.49391759182676
 30
0.0
 10
377.4028411109283
 20
66.55538647550634
 30
0.0
 10
377.3825004706836
 20
66.68066648137592
 30
0.0
 10
377.3768891387728
 20
66.74500352790498
 30
0.0
 10
377.3768891387728
 20
66.80850532691542
 30
0.0
  0
LINE
  5
498
330
342
100
AcDbEntity
  8
Uナット130620_M8__0
  6
CONTINUOUS
 62
     7
100
AcDbLine
 10
377.9288334804
 20
67.5590606769
 30
0.0
 11
377.9868891388
 21
67.3714218394
 31
0.0
  0
ARC
  5
499
330
342
100
AcDbEntity
  8
Uナット130620_M8__0
  6
CONTINUOUS
 62
     7
100
AcDbCircle
 10
377.6201976659
 20
67.3820759156
 30
0.0
 40
0.3668462152418008
100
AcDbArc
 50
327.2799906267
 51
358.3357619053
  0
SPLINE
  5
49A
330
342
100
AcDbEntity
  8
Uナット130620_M8__0
  6
CONTINUOUS
 62
     7
100
AcDbSpline
210
0.0
220
0.0
230
1.0
 70
     8
 71
     3
 72
    10
 73
     6
 74
     0
 42
0.0000000262228226
 43
0.0000000001
 40
0.0
 40
0.0
 40
0.0
 40
0.0
 40
0.4999999999999999
 40
0.4999999999999999
 40
1.0
 40
1.0
 40
1.0
 40
1.0
 10
377.9288334804127
 20
67.1837830018887
 30
0.0
 10
377.9464652785037
 20
67.12270466164398
 30
0.0
 10
377.9612350054833
 20
67.06020797993384
 30
0.0
 10
377.9814316732437
 20
66.93496884950598
 30
0.0
 10
377.9868891387728
 20
66.87196376526951
 30
0.0
 10
377.9868891387728
 20
66.80850532691542
 30
0.0
  0
SPLINE
  5
49B
330
342
100
AcDbEntity
  8
Uナット130620_M8__0
  6
CONTINUOUS
 62
     7
100
AcDbSpline
210
0.0
220
0.0
230
1.0
 70
     8
 71
     3
 72
    10
 73
     6
 74
     0
 42
0.0000000262228365
 43
0.0000000001
 40
0.0
 40
0.0
 40
0.0
 40
0.0
 40
0.5
 40
0.5
 40
1.0
 40
1.0
 40
1.0
 40
1.0
 10
377.9868891387728
 20
66.80850532691542
 30
0.0
 10
377.9868891387728
 20
66.74500352790497
 30
0.0
 10
377.981277806862
 20
66.68066648137594
 30
0.0
 10
377.9609371666173
 20
66.55538647550634
 30
0.0
 10
377.9463531569775
 20
66.49391759182677
 30
0.0
 10
377.9288334804127
 20
66.43322765194219
 30
0.0
  0
LINE
  5
49C
330
342
100
AcDbEntity
  8
Uナット130620_M8__0
  6
CONTINUOUS
 62
     7
100
AcDbLine
 10
377.9288334804
 20
66.4332276519
 30
0.0
 11
377.9868891388
 21
66.2455888145
 31
0.0
  0
ARC
  5
49D
330
342
100
AcDbEntity
  8
Uナット130620_M8__0
  6
CONTINUOUS
 62
     7
100
AcDbCircle
 10
377.6201976659
 20
66.2562428907
 30
0.0
 40
0.3668462152416081
100
AcDbArc
 50
327.2799906267
 51
358.3357619053
  0
LINE
  5
49E
330
342
100
AcDbEntity
  8
Uナット130620_M8__0
  6
CONTINUOUS
 62
     7
100
AcDbLine
 10
377.4349447971
 20
67.5590606769
 30
0.0
 11
377.3768891388
 21
67.4585053269
 31
0.0
  0
LINE
  5
49F
330
342
100
AcDbEntity
  8
Uナット130620_M8__0
  6
CONTINUOUS
 62
     7
100
AcDbLine
 10
377.3768891388
 20
66.1585053269
 30
0.0
 11
377.4349447971
 21
66.057949977
 31
0.0
  0
LINE
  5
4A0
330
342
100
AcDbEntity
  8
Uナット130620_M8__0
  6
CONTINUOUS
 62
     7
100
AcDbLine
 10
377.9868891388
 20
67.4585053269
 30
0.0
 11
377.9288334804
 21
67.5590606769
 31
0.0
  0
LINE
  5
4A1
330
342
100
AcDbEntity
  8
Uナット130620_M8__0
  6
CONTINUOUS
 62
     7
100
AcDbLine
 10
377.9288334804
 20
66.057949977
 30
0.0
 11
377.9868891388
 21
66.1585053269
 31
0.0
  0
LINE
  5
4A2
330
342
100
AcDbEntity
  8
Uナット130620_M8__0
  6
CONTINUOUS
 62
     7
100
AcDbLine
 10
377.3768891388
 20
67.4585053269
 30
0.0
 11
377.3318891388
 21
67.4585053269
 31
0.0
  0
LINE
  5
4A3
330
342
100
AcDbEntity
  8
Uナット130620_M8__0
  6
CONTINUOUS
 62
     7
100
AcDbLine
 10
377.3318891388
 20
66.1585053269
 30
0.0
 11
377.3768891388
 21
66.1585053269
 31
0.0
  0
ARC
  5
4A4
330
342
100
AcDbEntity
  8
Uナット130620_M8__0
  6
CONTINUOUS
 62
     7
100
AcDbCircle
 10
377.3318891388
 20
66.2335053269
 30
0.0
 40
0.0749999999999917
100
AcDbArc
 50
180.0
 51
270.0
  0
ARC
  5
4A5
330
342
100
AcDbEntity
  8
Uナット130620_M8__0
  6
CONTINUOUS
 62
     7
100
AcDbCircle
 10
377.3318891388
 20
67.3835053269
 30
0.0
 40
0.0750000000000001
100
AcDbArc
 50
90.0
 51
180.0
  0
LINE
  5
4A6
330
342
100
AcDbEntity
  8
Uナット130620_M8__0
  6
CONTINUOUS
 62
     7
100
AcDbLine
 10
377.2568891388
 20
67.3835053269
 30
0.0
 11
377.2568891388
 21
66.2335053269
 31
0.0
  0
LINE
  5
4A8
330
342
100
AcDbEntity
  8
皿ばね110221_DB-8__
  6
CONTINUOUS
 62
     7
100
AcDbLine
 10
379.4865213224
 20
66.0085053269
 30
0.0
 11
379.4865213224
 21
67.6085053269
 31
0.0
  0
LINE
  5
4A9
330
342
100
AcDbEntity
  8
皿ばね110221_DB-8__
  6
CONTINUOUS
 62
     7
100
AcDbLine
 10
379.4865213224
 20
66.0085053269
 30
0.0
 11
379.5218891388
 21
66.3985053269
 31
0.0
  0
LINE
  5
4AA
330
342
100
AcDbEntity
  8
皿ばね110221_DB-8__
  6
CONTINUOUS
 62
     7
100
AcDbLine
 10
379.5218891388
 20
67.2185053269
 30
0.0
 11
379.4865213224
 21
67.6085053269
 31
0.0
  0
LINE
  5
4AB
330
342
100
AcDbEntity
  8
皿ばね110221_DB-8__
  6
CONTINUOUS
 62
     7
100
AcDbLine
 10
379.4865213224
 20
67.6085053269
 30
0.0
 11
379.3968891388
 21
67.6003768792
 31
0.0
  0
LINE
  5
4AC
330
342
100
AcDbEntity
  8
皿ばね110221_DB-8__
  6
CONTINUOUS
 62
     7
100
AcDbLine
 10
379.3968891388
 20
66.0166337746
 30
0.0
 11
379.4865213224
 21
66.0085053269
 31
0.0
  0
LINE
  5
4AE
330
342
100
AcDbEntity
  8
六角穴付ボタンボルト110427
  6
CONTINUOUS
 62
     7
100
AcDbLine
 10
379.6218891388
 20
67.5085053269
 30
0.0
 11
379.6218891388
 21
66.1085053269
 31
0.0
  0
LINE
  5
4AF
330
342
100
AcDbEntity
  8
六角穴付ボタンボルト110427
  6
CONTINUOUS
 62
     7
100
AcDbLine
 10
380.0218891388
 20
67.2585053269
 30
0.0
 11
380.0218891388
 21
66.3585053269
 31
0.0
  0
LINE
  5
4B0
330
342
100
AcDbEntity
  8
六角穴付ボタンボルト110427
  6
CONTINUOUS
 62
     7
100
AcDbLine
 10
377.0218891388
 20
67.2085053269
 30
0.0
 11
377.0218891388
 21
66.4085053269
 31
0.0
  0
LINE
  5
4B1
330
342
100
AcDbEntity
  8
六角穴付ボタンボルト110427
  6
CONTINUOUS
 62
     7
100
AcDbLine
 10
379.5218891388
 20
67.5085053269
 30
0.0
 11
379.5218891388
 21
66.1085053269
 31
0.0
  0
ARC
  5
4B2
330
342
100
AcDbEntity
  8
六角穴付ボタンボルト110427
  6
CONTINUOUS
 62
     7
100
AcDbCircle
 10
379.4625141388
 20
66.8085053269
 30
0.0
 40
0.7179139158875534
100
AcDbArc
 50
282.8263751823
 51
321.1843912339
  0
ARC
  5
4B3
330
342
100
AcDbEntity
  8
六角穴付ボタンボルト110427
  6
CONTINUOUS
 62
     7
100
AcDbCircle
 10
379.4625141388
 20
66.8085053269
 30
0.0
 40
0.7179139158875449
100
AcDbArc
 50
38.8156087661
 51
77.1736248177
  0
LINE
  5
4B4
330
342
100
AcDbEntity
  8
六角穴付ボタンボルト110427
  6
CONTINUOUS
 62
     7
100
AcDbLine
 10
377.0218891388
 20
66.4085053269
 30
0.0
 11
377.2568891388
 21
66.4085053269
 31
0.0
  0
LINE
  5
4B5
330
342
100
AcDbEntity
  8
六角穴付ボタンボルト110427
  6
CONTINUOUS
 62
     7
100
AcDbLine
 10
377.2568891388
 20
67.2085053269
 30
0.0
 11
377.0218891388
 21
67.2085053269
 31
0.0
  0
LINE
  5
4B6
330
342
100
AcDbEntity
  8
六角穴付ボタンボルト110427
  6
CONTINUOUS
 62
     7
100
AcDbLine
 10
379.5218891388
 20
66.1085053269
 30
0.0
 11
379.6218891388
 21
66.1085053269
 31
0.0
  0
LINE
  5
4B7
330
342
100
AcDbEntity
  8
六角穴付ボタンボルト110427
  6
CONTINUOUS
 62
     7
100
AcDbLine
 10
379.6218891388
 20
67.5085053269
 30
0.0
 11
379.5218891388
 21
67.5085053269
 31
0.0
  0
LINE
  5
4B9
330
342
100
AcDbEntity
  8
製品デカル150204_ロゴ_商
  6
CONTINUOUS
 62
     7
100
AcDbLine
 10
381.5568891388
 20
69.2085053269
 30
0.0
 11
381.5368891388
 21
69.2085053269
 31
0.0
  0
LINE
  5
4BA
330
342
100
AcDbEntity
  8
製品デカル150204_ロゴ_商
  6
CONTINUOUS
 62
     7
100
AcDbLine
 10
381.5568891388
 20
69.3585053269
 30
0.0
 11
381.5568891388
 21
71.0585053269
 31
0.0
  0
LINE
  5
4BB
330
342
100
AcDbEntity
  8
製品デカル150204_ロゴ_商
  6
CONTINUOUS
 62
     7
100
AcDbLine
 10
381.5568891388
 20
71.2085053269
 30
0.0
 11
381.5568891388
 21
71.0585053269
 31
0.0
  0
LINE
  5
4BC
330
342
100
AcDbEntity
  8
製品デカル150204_ロゴ_商
  6
CONTINUOUS
 62
     7
100
AcDbLine
 10
381.5568891388
 20
69.3585053269
 30
0.0
 11
381.5568891388
 21
69.2085053269
 31
0.0
  0
LINE
  5
4BD
330
342
100
AcDbEntity
  8
製品デカル150204_ロゴ_商
  6
CONTINUOUS
 62
     7
100
AcDbLine
 10
381.5368891388
 20
71.2085053269
 30
0.0
 11
381.5568891388
 21
71.2085053269
 31
0.0
  0
LINE
  5
4BF
330
342
100
AcDbEntity
  8
CC-0822-10_0
  6
CONTINUOUS
 62
     7
100
AcDbLine
 10
378.4368891388
 20
65.7085053269
 30
0.0
 11
378.5368891388
 21
65.7085053269
 31
0.0
  0
LINE
  5
4C0
330
342
100
AcDbEntity
  8
CC-0822-10_0
  6
CONTINUOUS
 62
     7
100
AcDbLine
 10
379.2368891388
 20
67.8585053269
 30
0.0
 11
379.2368891388
 21
65.7085053269
 31
0.0
  0
LINE
  5
4C1
330
342
100
AcDbEntity
  8
CC-0822-10_0
  6
CONTINUOUS
 62
     7
100
AcDbLine
 10
379.1368891388
 20
65.7085053269
 30
0.0
 11
379.2368891388
 21
65.7085053269
 31
0.0
  0
LINE
  5
4C2
330
342
100
AcDbEntity
  8
ﾐﾗｰ転点防止金具_後_1608
  6
CONTINUOUS
 62
     7
100
AcDbLine
 10
379.1368891388
 20
64.0585053269
 30
0.0
 11
381.4368891388
 21
62.7305997078
 31
0.0
  0
LINE
  5
4C3
330
342
100
AcDbEntity
  8
ﾐﾗｰ転点防止金具_後_1608
  6
CONTINUOUS
 62
     7
100
AcDbLine
 10
378.8368891388
 20
63.5388900846
 30
0.0
 11
381.1368891388
 21
62.2109844655
 31
0.0
  0
ARC
  5
4C4
330
342
100
AcDbEntity
  8
ﾐﾗｰ転点防止金具_後_1608
  6
CONTINUOUS
 62
     7
100
AcDbCircle
 10
381.1368891388
 20
59.6085053269
 30
0.0
 40
0.5999999999999999
100
AcDbArc
 50
270.0
 51
0.0
  0
LINE
  5
4C5
330
342
100
AcDbEntity
  8
ﾐﾗｰ転点防止金具_後_1608
  6
CONTINUOUS
 62
     7
100
AcDbLine
 10
381.1368891388
 20
59.6085053269
 30
0.0
 11
381.1368891388
 21
62.2109844655
 31
0.0
  0
LINE
  5
4C6
330
342
100
AcDbEntity
  8
ﾐﾗｰ転点防止金具_後_1608
  6
CONTINUOUS
 62
     7
100
AcDbLine
 10
381.7368891388
 20
59.6085053269
 30
0.0
 11
381.7368891388
 21
62.2109844655
 31
0.0
  0
ARC
  5
4C7
330
342
100
AcDbEntity
  8
ﾐﾗｰ転点防止金具_後_1608
  6
CONTINUOUS
 62
     7
100
AcDbCircle
 10
381.1368891388
 20
62.2109844655
 30
0.0
 40
0.6000000000000006
100
AcDbArc
 50
0.0
 51
60.0
  0
ARC
  5
4C8
330
342
100
AcDbEntity
  8
ﾐﾗｰ転点防止金具_後_1608
  6
CONTINUOUS
 62
     7
100
AcDbCircle
 10
379.1368891388
 20
64.0585053269
 30
0.0
 40
0.5999999999999975
100
AcDbArc
 50
180.0
 51
240.0
  0
LINE
  5
4C9
330
342
100
AcDbEntity
  8
ﾐﾗｰ転点防止金具_後_1608
  6
CONTINUOUS
 62
     7
100
AcDbLine
 10
377.2611784607
 20
66.2085053269
 30
0.0
 11
376.9368891388
 21
66.2085053269
 31
0.0
  0
LINE
  5
4CA
330
342
100
AcDbEntity
  8
ﾐﾗｰ転点防止金具_後_1608
  6
CONTINUOUS
 62
     7
100
AcDbLine
 10
378.5368891388
 20
66.8085053269
 30
0.0
 11
378.5368891388
 21
64.0585053269
 31
0.0
  0
LINE
  5
4CB
330
342
100
AcDbEntity
  8
ﾐﾗｰ転点防止金具_後_1608
  6
CONTINUOUS
 62
     7
100
AcDbLine
 10
378.5368891388
 20
67.8585053269
 30
0.0
 11
378.5368891388
 21
66.8085053269
 31
0.0
  0
LINE
  5
4CC
330
342
100
AcDbEntity
  8
ﾐﾗｰ転点防止金具_後_1608
  6
CONTINUOUS
 62
     7
100
AcDbLine
 10
379.1368891388
 20
66.8085053269
 30
0.0
 11
379.1368891388
 21
64.0585053269
 31
0.0
  0
LINE
  5
4CD
330
342
100
AcDbEntity
  8
ﾐﾗｰ転点防止金具_後_1608
  6
CONTINUOUS
 62
     7
100
AcDbLine
 10
379.1368891388
 20
66.8085053269
 30
0.0
 11
379.1368891388
 21
67.8585053269
 31
0.0
  0
LINE
  5
4CE
330
342
100
AcDbEntity
  8
ﾐﾗｰ転点防止金具_後_1608
  6
CONTINUOUS
 62
     7
100
AcDbLine
 10
377.2853718945
 20
64.7085053269
 30
0.0
 11
378.5368891388
 21
64.7085053269
 31
0.0
  0
LINE
  5
4CF
330
342
100
AcDbEntity
  8
ﾐﾗｰ転点防止金具_後_1608
  6
CONTINUOUS
 62
     7
100
AcDbLine
 10
377.1121668137
 20
64.8085053269
 30
0.0
 11
376.763684058
 21
65.4120951654
 31
0.0
  0
LINE
  5
4D0
330
342
100
AcDbEntity
  8
ﾐﾗｰ転点防止金具_後_1608
  6
CONTINUOUS
 62
     7
100
AcDbLine
 10
376.7368891388
 20
66.0085053269
 30
0.0
 11
376.7368891388
 21
65.5120951654
 31
0.0
  0
ARC
  5
4D1
330
342
100
AcDbEntity
  8
ﾐﾗｰ転点防止金具_後_1608
  6
CONTINUOUS
 62
     7
100
AcDbCircle
 10
376.9368891388
 20
66.0085053269
 30
0.0
 40
0.2000000000000002
100
AcDbArc
 50
90.0
 51
180.0
  0
ARC
  5
4D2
330
342
100
AcDbEntity
  8
ﾐﾗｰ転点防止金具_後_1608
  6
CONTINUOUS
 62
     7
100
AcDbCircle
 10
376.9368891388
 20
65.5120951654
 30
0.0
 40
0.2000000000000008
100
AcDbArc
 50
180.0
 51
210.0
  0
ARC
  5
4D3
330
342
100
AcDbEntity
  8
ﾐﾗｰ転点防止金具_後_1608
  6
CONTINUOUS
 62
     7
100
AcDbCircle
 10
377.2853718945
 20
64.9085053269
 30
0.0
 40
0.1999999999999988
100
AcDbArc
 50
210.0
 51
270.0
  0
LINE
  5
4D4
330
342
100
AcDbEntity
  8
ﾐﾗｰ転点防止金具_後_1608
  6
CONTINUOUS
 62
     7
100
AcDbLine
 10
378.5368891388
 20
59.6085053269
 30
0.0
 11
378.5368891388
 21
59.0085053269
 31
0.0
  0
LINE
  5
4D5
330
342
100
AcDbEntity
  8
ﾐﾗｰ転点防止金具_後_1608
  6
CONTINUOUS
 62
     7
100
AcDbLine
 10
379.0368891388
 20
59.0085053269
 30
0.0
 11
381.1368891388
 21
59.0085053269
 31
0.0
  0
LINE
  5
4D6
330
342
100
AcDbEntity
  8
ﾐﾗｰ転点防止金具_後_1608
  6
CONTINUOUS
 62
     7
100
AcDbLine
 10
378.5368891388
 20
59.0085053269
 30
0.0
 11
379.0368891388
 21
59.0085053269
 31
0.0
  0
LINE
  5
4D7
330
342
100
AcDbEntity
  8
ﾐﾗｰ転点防止金具_後_1608
  6
CONTINUOUS
 62
     7
100
AcDbLine
 10
379.0368891388
 20
59.6085053269
 30
0.0
 11
381.1368891388
 21
59.6085053269
 31
0.0
  0
LINE
  5
4D8
330
342
100
AcDbEntity
  8
ﾐﾗｰ転点防止金具_後_1608
  6
CONTINUOUS
 62
     7
100
AcDbLine
 10
379.0368891388
 20
59.6085053269
 30
0.0
 11
378.5368891388
 21
59.6085053269
 31
0.0
  0
LINE
  5
4D9
330
342
100
AcDbEntity
  8
TE100N_S__150205
  6
CONTINUOUS
 62
     7
100
AcDbLine
 10
315.4868891388
 20
67.2285053269
 30
0.0
 11
314.714761065
 21
67.2285053269
 31
0.0
  0
LINE
  5
4DA
330
342
100
AcDbEntity
  8
TE100N_S__150205
  6
CONTINUOUS
 62
     7
100
AcDbLine
 10
313.2868891388
 20
67.2285053269
 30
0.0
 11
314.0590172126
 21
67.2285053269
 31
0.0
  0
LINE
  5
4DB
330
342
100
AcDbEntity
  8
TE100N_S__150205
  6
CONTINUOUS
 62
     7
100
AcDbLine
 10
313.8059416368
 20
67.8585053269
 30
0.0
 11
313.8059416368
 21
67.3285053269
 31
0.0
  0
LINE
  5
4DC
330
342
100
AcDbEntity
  8
TE100N_S__150205
  6
CONTINUOUS
 62
     7
100
AcDbLine
 10
314.3868891388
 20
67.2285053269
 30
0.0
 11
314.0590172126
 21
67.2285053269
 31
0.0
  0
SPLINE
  5
4DD
330
342
100
AcDbEntity
  8
TE100N_S__150205
  6
CONTINUOUS
 62
     7
100
AcDbSpline
210
0.0
220
0.0
230
1.0
 70
     8
 71
     3
 72
    16
 73
    12
 74
     0
 42
0.0000000339078916
 43
0.0000000001
 40
0.0
 40
0.0
 40
0.0
 40
0.0
 40
0.2500000000000005
 40
0.2500000000000005
 40
0.5000000000000006
 40
0.5000000000000006
 40
0.7500000000000006
 40
0.7500000000000006
 40
0.8750000000000003
 40
0.8750000000000003
 40
1.0
 40
1.0
 40
1.0
 40
1.0
 10
314.0590172125577
 20
67.22850532691567
 30
0.0
 10
314.0346430929716
 20
67.22850532691567
 30
0.0
 10
314.0102549272204
 20
67.22927285812223
 30
0.0
 10
313.961473279619
 20
67.23357114453877
 30
0.0
 10
313.9373374750427
 20
67.23703773680292
 30
0.0
 10
313.8899985298823
 20
67.2487891357195
 30
0.0
 10
313.8663305209359
 20
67.25705213329007
 30
0.0
 10
313.8354038007126
 20
67.27680577126323
 30
0.0
 10
313.8257874182129
 20
67.28471455931837
 30
0.0
 10
313.810935129303
 20
67.30426445396601
 30
0.0
 10
313.8059416368417
 20
67.31619343405596
 30
0.0
 10
313.8059416368417
 20
67.32850532691567
 30
0.0
  0
LINE
  5
4DE
330
342
100
AcDbEntity
  8
TE100N_S__150205
  6
CONTINUOUS
 62
     7
100
AcDbLine
 10
314.9678366407
 20
67.8585053269
 30
0.0
 11
314.9678366407
 21
67.3285053269
 31
0.0
  0
SPLINE
  5
4DF
330
342
100
AcDbEntity
  8
TE100N_S__150205
  6
CONTINUOUS
 62
     7
100
AcDbSpline
210
0.0
220
0.0
230
1.0
 70
     8
 71
     3
 72
    18
 73
    14
 74
     0
 42
0.0000000339376881
 43
0.0000000001
 40
0.0
 40
0.0
 40
0.0
 40
0.0
 40
0.1250000000000007
 40
0.1250000000000007
 40
0.2500000000000014
 40
0.2500000000000014
 40
0.3750000000000021
 40
0.3750000000000021
 40
0.5000000000000028
 40
0.5000000000000028
 40
0.7500000000000016
 40
0.7500000000000016
 40
1.0
 40
1.0
 40
1.0
 40
1.0
 10
314.9678366407039
 20
67.32850532691567
 30
0.0
 10
314.9678366407039
 20
67.31602436894075
 30
0.0
 10
314.9628346630703
 20
67.30419169124076
 30
0.0
 10
314.9477200656244
 20
67.28442086234418
 30
0.0
 10
314.9380801847615
 20
67.27657087275489
 30
0.0
 10
314.9172488433923
 20
67.26336109626544
 30
0.0
 10
314.9061928070281
 20
67.25812833942595
 30
0.0
 10
314.8833210234165
 20
67.24929068182155
 30
0.0
 10
314.871462708885
 20
67.24571342404046
 30
0.0
 10
314.8359020925786
 20
67.23694145449649
 30
0.0
 10
314.8118899159577
 20
67.23352701504726
 30
0.0
 10
314.7635416065912
 20
67.22928208448397
 30
0.0
 10
314.7391798690176
 20
67.22850532691567
 30
0.0
 10
314.7147610649878
 20
67.22850532691567
 30
0.0
  0
LINE
  5
4E0
330
342
100
AcDbEntity
  8
TE100N_S__150205
  6
CONTINUOUS
 62
     7
100
AcDbLine
 10
314.714761065
 20
67.2285053269
 30
0.0
 11
314.3868891388
 21
67.2285053269
 31
0.0
  0
ARC
  5
4E1
330
342
100
AcDbEntity
  8
TE100N_S__150205
  6
CONTINUOUS
 62
     7
100
AcDbCircle
 10
312.0687272662
 20
62.3699706338
 30
0.0
 40
4.707599243424998
100
AcDbArc
 50
62.5723646125
 51
74.7227838952
  0
ARC
  5
4E2
330
342
100
AcDbEntity
  8
TE100N_S__150205
  6
CONTINUOUS
 62
     7
100
AcDbCircle
 10
314.7636205222
 20
66.3042828171
 30
0.0
 40
0.1073842773614241
100
AcDbArc
 50
180.3714101981
 51
201.8381973544
  0
LINE
  5
4E3
330
342
100
AcDbEntity
  8
TE100N_S__150205
  6
CONTINUOUS
 62
     7
100
AcDbLine
 10
308.7422376028
 20
65.8953304516
 30
0.0
 11
308.7729510903
 21
65.8587275425
 31
0.0
  0
LINE
  5
4E4
330
342
100
AcDbEntity
  8
TE100N_S__150205
  6
CONTINUOUS
 62
     7
100
AcDbLine
 10
307.8911289173
 20
64.8963875087
 30
0.0
 11
307.3487882089
 21
65.276138561
 31
0.0
  0
CIRCLE
  5
4E5
330
342
100
AcDbEntity
  8
TE100N_S__150205
  6
CONTINUOUS
 62
     7
100
AcDbCircle
 10
311.9868891388
 20
62.0285053269
 30
0.0
 40
5.000000000000001
  0
CIRCLE
  5
4E6
330
342
100
AcDbEntity
  8
TE100N_S__150205
  6
CONTINUOUS
 62
     7
100
AcDbCircle
 10
311.9868891388
 20
62.0285053269
 30
0.0
 40
4.2
  0
CIRCLE
  5
4E7
330
342
100
AcDbEntity
  8
TE100N_S__150205
  6
CONTINUOUS
 62
     7
100
AcDbCircle
 10
311.9868891388
 20
62.0285053269
 30
0.0
 40
1.75
  0
ARC
  5
4E8
330
342
100
AcDbEntity
  8
TE100N_S__150205
  6
CONTINUOUS
 62
     7
100
AcDbCircle
 10
306.9475474485
 20
66.0660862357
 30
0.0
 40
1.265258337346739
100
AcDbArc
 50
210.4196219935
 51
212.9231163913
  0
ARC
  5
4E9
330
342
100
AcDbEntity
  8
TE100N_S__150205
  6
CONTINUOUS
 62
     7
100
AcDbCircle
 10
306.1008891388
 20
65.2515053269
 30
0.0
 40
0.3000000000000089
100
AcDbArc
 50
144.5626391798
 51
209.1206842739
  0
ARC
  5
4EA
330
342
100
AcDbEntity
  8
TE100N_S__150205
  6
CONTINUOUS
 62
     7
100
AcDbCircle
 10
306.8203513976
 20
64.5029774967
 30
0.0
 40
1.151724240919975
100
AcDbArc
 50
145.5574518532
 51
148.455744221
  0
ARC
  5
4EB
330
342
100
AcDbEntity
  8
TE100N_S__150205
  6
CONTINUOUS
 62
     7
100
AcDbCircle
 10
306.0388891388
 20
70.1015053269
 30
0.0
 40
5.0
100
AcDbArc
 50
267.7066514726
 51
308.575164362
  0
ARC
  5
4EC
330
342
100
AcDbEntity
  8
TE100N_S__150205
  6
CONTINUOUS
 62
     7
100
AcDbCircle
 10
308.7208168217
 20
65.1251270498
 30
0.0
 40
1.152950643870021
100
AcDbArc
 50
67.7922479306
 51
70.6863652148
  0
ARC
  5
4ED
330
342
100
AcDbEntity
  8
TE100N_S__150205
  6
CONTINUOUS
 62
     7
100
AcDbCircle
 10
307.714372446
 20
66.3207867152
 30
0.0
 40
1.248088076960901
100
AcDbArc
 50
2.8920850776
 51
5.4378478996
  0
ARC
  5
4EE
330
342
100
AcDbEntity
  8
TE100N_S__150205
  6
CONTINUOUS
 62
     7
100
AcDbCircle
 10
304.9728891388
 20
73.3765053269
 30
0.0
 40
8.0
100
AcDbArc
 50
276.3410768229
 51
299.8673929845
  0
ARC
  5
4EF
330
342
100
AcDbEntity
  8
TE100N_S__150205
  6
CONTINUOUS
 62
     7
100
AcDbCircle
 10
308.8588891388
 20
66.1555053269
 30
0.0
 40
0.299999999999997
100
AcDbArc
 50
7.0933440235
 51
70.9426206807
  0
CIRCLE
  5
4F0
330
342
100
AcDbEntity
  8
TE100N_S__150205
  6
CONTINUOUS
 62
     7
100
AcDbCircle
 10
311.9868891388
 20
62.0285053269
 30
0.0
 40
2.6
  0
CIRCLE
  5
4F1
330
342
100
AcDbEntity
  8
TE100N_S__150205
  6
CONTINUOUS
 62
     7
100
AcDbCircle
 10
311.9868891388
 20
62.0285053269
 30
0.0
 40
3.5
  0
ARC
  5
4F2
330
342
100
AcDbEntity
  8
TE100N_S__150205
  6
CONTINUOUS
 62
     7
100
AcDbCircle
 10
315.4868891388
 20
67.3285053269
 30
0.0
 40
0.1000000000000001
100
AcDbArc
 50
270.0
 51
0.0
  0
ARC
  5
4F3
330
342
100
AcDbEntity
  8
TE100N_S__150205
  6
CONTINUOUS
 62
     7
100
AcDbCircle
 10
313.2868891388
 20
67.3285053269
 30
0.0
 40
0.1000000000000001
100
AcDbArc
 50
180.0
 51
270.0
  0
LINE
  5
4F4
330
342
100
AcDbEntity
  8
TE100N_S__150205
  6
CONTINUOUS
 62
     7
100
AcDbLine
 10
313.1868891388
 20
67.8585053269
 30
0.0
 11
313.1868891388
 21
67.3285053269
 31
0.0
  0
LINE
  5
4F5
330
342
100
AcDbEntity
  8
TE100N_S__150205
  6
CONTINUOUS
 62
     7
100
AcDbLine
 10
315.5868891388
 20
67.3285053269
 30
0.0
 11
315.5868891388
 21
67.8585053269
 31
0.0
  0
ARC
  5
4F6
330
342
100
AcDbEntity
  8
TE100N_S__150205
  6
CONTINUOUS
 62
     7
100
AcDbCircle
 10
315.6346843349
 20
65.5174506993
 30
0.0
 40
0.0476839730741365
100
AcDbArc
 50
183.6508444306
 51
223.5535870214
  0
LINE
  5
4F7
330
342
100
AcDbEntity
  8
TE100N_S__150205
  6
CONTINUOUS
 62
     7
100
AcDbLine
 10
315.5868569066
 20
65.5143658969
 30
0.0
 11
315.4368891388
 21
67.2285053269
 31
0.0
  0
LINE
  5
4F8
330
342
100
AcDbEntity
  8
TE100N_S__150205
  6
CONTINUOUS
 62
     7
100
AcDbLine
 10
313.3368891388
 20
67.2285053269
 30
0.0
 11
313.3091297542
 21
66.9112141092
 31
0.0
  0
LINE
  5
4F9
330
342
100
AcDbEntity
  8
TE100N_S__150205
  6
CONTINUOUS
 62
     7
100
AcDbLine
 10
370.214761065
 20
67.2285053269
 30
0.0
 11
370.9868891388
 21
67.2285053269
 31
0.0
  0
LINE
  5
4FA
330
342
100
AcDbEntity
  8
TE100N_S__150205
  6
CONTINUOUS
 62
     7
100
AcDbLine
 10
369.5590172126
 20
67.2285053269
 30
0.0
 11
368.7868891388
 21
67.2285053269
 31
0.0
  0
LINE
  5
4FB
330
342
100
AcDbEntity
  8
TE100N_S__150205
  6
CONTINUOUS
 62
     7
100
AcDbLine
 10
369.3059416368
 20
67.8585053269
 30
0.0
 11
369.3059416368
 21
67.3285053269
 31
0.0
  0
LINE
  5
4FC
330
342
100
AcDbEntity
  8
TE100N_S__150205
  6
CONTINUOUS
 62
     7
100
AcDbLine
 10
369.8868891388
 20
67.2285053269
 30
0.0
 11
369.5590172126
 21
67.2285053269
 31
0.0
  0
SPLINE
  5
4FD
330
342
100
AcDbEntity
  8
TE100N_S__150205
  6
CONTINUOUS
 62
     7
100
AcDbSpline
210
0.0
220
0.0
230
1.0
 70
     8
 71
     3
 72
    16
 73
    12
 74
     0
 42
0.0000000339078916
 43
0.0000000001
 40
0.0
 40
0.0
 40
0.0
 40
0.0
 40
0.2500000000000005
 40
0.2500000000000005
 40
0.5000000000000006
 40
0.5000000000000006
 40
0.7500000000000006
 40
0.7500000000000006
 40
0.8750000000000003
 40
0.8750000000000003
 40
1.0
 40
1.0
 40
1.0
 40
1.0
 10
369.5590172125577
 20
67.22850532691567
 30
0.0
 10
369.5346430929716
 20
67.22850532691567
 30
0.0
 10
369.5102549272204
 20
67.22927285812223
 30
0.0
 10
369.461473279619
 20
67.23357114453877
 30
0.0
 10
369.4373374750426
 20
67.23703773680292
 30
0.0
 10
369.3899985298823
 20
67.2487891357195
 30
0.0
 10
369.3663305209359
 20
67.25705213329007
 30
0.0
 10
369.3354038007126
 20
67.27680577126323
 30
0.0
 10
369.3257874182129
 20
67.28471455931837
 30
0.0
 10
369.310935129303
 20
67.30426445396601
 30
0.0
 10
369.3059416368416
 20
67.31619343405596
 30
0.0
 10
369.3059416368417
 20
67.32850532691567
 30
0.0
  0
LINE
  5
4FE
330
342
100
AcDbEntity
  8
TE100N_S__150205
  6
CONTINUOUS
 62
     7
100
AcDbLine
 10
370.4678366407
 20
67.8585053269
 30
0.0
 11
370.4678366407
 21
67.3285053269
 31
0.0
  0
SPLINE
  5
4FF
330
342
100
AcDbEntity
  8
TE100N_S__150205
  6
CONTINUOUS
 62
     7
100
AcDbSpline
210
0.0
220
0.0
230
1.0
 70
     8
 71
     3
 72
    18
 73
    14
 74
     0
 42
0.0000000339376881
 43
0.0000000001
 40
0.0
 40
0.0
 40
0.0
 40
0.0
 40
0.1250000000000007
 40
0.1250000000000007
 40
0.2500000000000014
 40
0.2500000000000014
 40
0.3750000000000021
 40
0.3750000000000021
 40
0.5000000000000028
 40
0.5000000000000028
 40
0.7500000000000016
 40
0.7500000000000016
 40
1.0
 40
1.0
 40
1.0
 40
1.0
 10
370.4678366407039
 20
67.32850532691567
 30
0.0
 10
370.4678366407039
 20
67.31602436894075
 30
0.0
 10
370.4628346630703
 20
67.30419169124076
 30
0.0
 10
370.4477200656244
 20
67.28442086234418
 30
0.0
 10
370.4380801847615
 20
67.27657087275489
 30
0.0
 10
370.4172488433923
 20
67.26336109626544
 30
0.0
 10
370.4061928070281
 20
67.25812833942595
 30
0.0
 10
370.3833210234165
 20
67.24929068182155
 30
0.0
 10
370.371462708885
 20
67.24571342404046
 30
0.0
 10
370.3359020925786
 20
67.23694145449649
 30
0.0
 10
370.3118899159577
 20
67.23352701504726
 30
0.0
 10
370.2635416065912
 20
67.22928208448397
 30
0.0
 10
370.2391798690176
 20
67.22850532691567
 30
0.0
 10
370.2147610649878
 20
67.22850532691567
 30
0.0
  0
LINE
  5
500
330
342
100
AcDbEntity
  8
TE100N_S__150205
  6
CONTINUOUS
 62
     7
100
AcDbLine
 10
370.214761065
 20
67.2285053269
 30
0.0
 11
369.8868891388
 21
67.2285053269
 31
0.0
  0
ARC
  5
501
330
342
100
AcDbEntity
  8
TE100N_S__150205
  6
CONTINUOUS
 62
     7
100
AcDbCircle
 10
367.5687272662
 20
62.3699706338
 30
0.0
 40
4.707599243423746
100
AcDbArc
 50
62.5723646125
 51
74.7227838952
  0
ARC
  5
502
330
342
100
AcDbEntity
  8
TE100N_S__150205
  6
CONTINUOUS
 62
     7
100
AcDbCircle
 10
370.2636205222
 20
66.3042828171
 30
0.0
 40
0.1073842773616903
100
AcDbArc
 50
180.3714101981
 51
201.8381973544
  0
CIRCLE
  5
503
330
342
100
AcDbEntity
  8
TE100N_S__150205
  6
CONTINUOUS
 62
     7
100
AcDbCircle
 10
367.4868891388
 20
62.0285053269
 30
0.0
 40
5.000000000000001
  0
CIRCLE
  5
504
330
342
100
AcDbEntity
  8
TE100N_S__150205
  6
CONTINUOUS
 62
     7
100
AcDbCircle
 10
367.4868891388
 20
62.0285053269
 30
0.0
 40
4.2
  0
CIRCLE
  5
505
330
342
100
AcDbEntity
  8
TE100N_S__150205
  6
CONTINUOUS
 62
     7
100
AcDbCircle
 10
367.4868891388
 20
62.0285053269
 30
0.0
 40
1.75
  0
CIRCLE
  5
506
330
342
100
AcDbEntity
  8
TE100N_S__150205
  6
CONTINUOUS
 62
     7
100
AcDbCircle
 10
367.4868891388
 20
62.0285053269
 30
0.0
 40
2.6
  0
CIRCLE
  5
507
330
342
100
AcDbEntity
  8
TE100N_S__150205
  6
CONTINUOUS
 62
     7
100
AcDbCircle
 10
367.4868891388
 20
62.0285053269
 30
0.0
 40
3.5
  0
ARC
  5
508
330
342
100
AcDbEntity
  8
TE100N_S__150205
  6
CONTINUOUS
 62
     7
100
AcDbCircle
 10
370.9868891388
 20
67.3285053269
 30
0.0
 40
0.1000000000000001
100
AcDbArc
 50
270.0
 51
0.0
  0
ARC
  5
509
330
342
100
AcDbEntity
  8
TE100N_S__150205
  6
CONTINUOUS
 62
     7
100
AcDbCircle
 10
368.7868891388
 20
67.3285053269
 30
0.0
 40
0.1000000000000001
100
AcDbArc
 50
180.0
 51
270.0
  0
LINE
  5
50A
330
342
100
AcDbEntity
  8
TE100N_S__150205
  6
CONTINUOUS
 62
     7
100
AcDbLine
 10
368.6868891388
 20
67.8585053269
 30
0.0
 11
368.6868891388
 21
67.3285053269
 31
0.0
  0
LINE
  5
50B
330
342
100
AcDbEntity
  8
TE100N_S__150205
  6
CONTINUOUS
 62
     7
100
AcDbLine
 10
371.0868891388
 20
67.3285053269
 30
0.0
 11
371.0868891388
 21
67.8585053269
 31
0.0
  0
ARC
  5
50C
330
342
100
AcDbEntity
  8
TE100N_S__150205
  6
CONTINUOUS
 62
     7
100
AcDbCircle
 10
371.1346843349
 20
65.5174506993
 30
0.0
 40
0.0476839730741167
100
AcDbArc
 50
183.6508444306
 51
223.5535870214
  0
LINE
  5
50D
330
342
100
AcDbEntity
  8
TE100N_S__150205
  6
CONTINUOUS
 62
     7
100
AcDbLine
 10
371.0868569066
 20
65.5143658969
 30
0.0
 11
370.9368891388
 21
67.2285053269
 31
0.0
  0
LINE
  5
50E
330
342
100
AcDbEntity
  8
TE100N_S__150205
  6
CONTINUOUS
 62
     7
100
AcDbLine
 10
368.8368891388
 20
67.2285053269
 30
0.0
 11
368.8091297542
 21
66.9112141092
 31
0.0
  0
LINE
  5
510
330
342
100
AcDbEntity
  8
ﾐﾗｰベースサイドカバー1608
  6
CONTINUOUS
 62
     7
100
AcDbLine
 10
381.5368891388
 20
67.8585053269
 30
0.0
 11
381.5368891388
 21
72.4919876324
 31
0.0
  0
LINE
  5
511
330
342
100
AcDbEntity
  8
ﾐﾗｰベースサイドカバー1608
  6
CONTINUOUS
 62
     7
100
AcDbLine
 10
380.4316420439
 20
72.5609310671
 30
0.0
 11
381.1768891388
 21
72.534906465
 31
0.0
  0
LINE
  5
512
330
342
100
AcDbEntity
  8
ﾐﾗｰベースサイドカバー1608
  6
CONTINUOUS
 62
     7
100
AcDbLine
 10
381.1768891388
 20
72.5444615823
 30
0.0
 11
381.1768891388
 21
72.534906465
 31
0.0
  0
LINE
  5
513
330
342
100
AcDbEntity
  8
ﾐﾗｰベースサイドカバー1608
  6
CONTINUOUS
 62
     7
100
AcDbLine
 10
380.5568891388
 20
72.4919876324
 30
0.0
 11
380.4292344861
 21
72.4919876324
 31
0.0
  0
LINE
  5
514
330
342
100
AcDbEntity
  8
ﾐﾗｰベースサイドカバー1608
  6
CONTINUOUS
 62
     7
100
AcDbLine
 10
380.4292344861
 20
72.4919876324
 30
0.0
 11
380.4319753096
 21
72.5704745465
 31
0.0
  0
LINE
  5
515
330
342
100
AcDbEntity
  8
ﾐﾗｰベースサイドカバー1608
  6
CONTINUOUS
 62
     7
100
AcDbLine
 10
319.580396813
 20
74.8555560194
 30
0.0
 11
341.682416057
 21
74.0837365001
 31
0.0
  0
LINE
  5
516
330
342
100
AcDbEntity
  8
ﾐﾗｰベースサイドカバー1608
  6
CONTINUOUS
 62
     7
100
AcDbLine
 10
344.1980149169
 20
73.9958898522
 30
0.0
 11
380.4375592291
 21
72.7303770788
 31
0.0
  0
LINE
  5
517
330
342
100
AcDbEntity
  8
ﾐﾗｰベースサイドカバー1608
  6
CONTINUOUS
 62
     7
100
AcDbLine
 10
380.4375592291
 20
72.7303770788
 30
0.0
 11
380.4319753096
 21
72.5704745465
 31
0.0
  0
LINE
  5
518
330
342
100
AcDbEntity
  8
ﾐﾗｰベースサイドカバー1608
  6
CONTINUOUS
 62
     7
100
AcDbLine
 10
380.5568891388
 20
72.4919876324
 30
0.0
 11
381.5368891388
 21
72.4919876324
 31
0.0
  0
LINE
  5
519
330
342
100
AcDbEntity
  8
ﾐﾗｰベースサイドカバー1608
  6
CONTINUOUS
 62
     7
100
AcDbLine
 10
381.5368891388
 20
67.8585053269
 30
0.0
 11
380.5568891388
 21
67.8585053269
 31
0.0
  0
LINE
  5
51A
330
342
100
AcDbEntity
  8
ﾐﾗｰベースサイドカバー1608
  6
CONTINUOUS
 62
     7
100
AcDbLine
 10
381.5382808667
 20
72.5318415051
 30
0.0
 11
381.5438647861
 21
72.6917440374
 31
0.0
  0
LINE
  5
51B
330
342
100
AcDbEntity
  8
ﾐﾗｰベースサイドカバー1608
  6
CONTINUOUS
 62
     7
100
AcDbLine
 10
380.7443521245
 20
72.7196636348
 30
0.0
 11
380.4375592291
 21
72.7303770788
 31
0.0
  0
LINE
  5
51C
330
342
100
AcDbEntity
  8
ﾐﾗｰベースサイドカバー1608
  6
CONTINUOUS
 62
     7
100
AcDbLine
 10
381.5438647861
 20
72.6917440374
 30
0.0
 11
380.7443521245
 21
72.7196636348
 31
0.0
  0
LINE
  5
51D
330
342
100
AcDbEntity
  8
ﾐﾗｰベースサイドカバー1608
  6
CONTINUOUS
 62
     7
100
AcDbLine
 10
380.7387682051
 20
72.5597611025
 30
0.0
 11
380.4319753096
 21
72.5704745465
 31
0.0
  0
LINE
  5
51E
330
342
100
AcDbEntity
  8
ﾐﾗｰベースサイドカバー1608
  6
CONTINUOUS
 62
     7
100
AcDbLine
 10
380.7387682051
 20
72.5597611025
 30
0.0
 11
381.5382808667
 21
72.5318415051
 31
0.0
  0
LINE
  5
51F
330
342
100
AcDbEntity
  8
ﾐﾗｰベースサイドカバー1608
  6
CONTINUOUS
 62
     7
100
AcDbLine
 10
381.1768891388
 20
72.4919876324
 30
0.0
 11
381.1768891388
 21
72.534906465
 31
0.0
  0
LINE
  5
520
330
342
100
AcDbEntity
  8
ﾐﾗｰベースサイドカバー1608
  6
CONTINUOUS
 62
     7
100
AcDbLine
 10
317.1268056433
 20
67.8585053269
 30
0.0
 11
380.5568891388
 21
67.8585053269
 31
0.0
  0
ARC
  5
521
330
342
100
AcDbEntity
  8
ﾐﾗｰベースサイドカバー1608
  6
CONTINUOUS
 62
     7
100
AcDbCircle
 10
317.1268056433
 20
68.0585053269
 30
0.0
 40
0.1999999999999988
100
AcDbArc
 50
212.3301023541
 51
270.0
  0
LINE
  5
523
330
342
100
AcDbEntity
  8
補強金具150407_ﾃﾞﾌｫﾙ
  6
CONTINUOUS
 62
     7
100
AcDbLine
 10
327.5233027758
 20
95.3429956063
 30
0.0
 11
327.3830789243
 21
95.3962616506
 31
0.0
  0
LINE
  5
524
330
342
100
AcDbEntity
  8
補強金具150407_ﾃﾞﾌｫﾙ
  6
CONTINUOUS
 62
     7
100
AcDbLine
 10
344.1980149169
 20
73.9958898522
 30
0.0
 11
341.682416057
 21
74.0837365001
 31
0.0
  0
LINE
  5
525
330
342
100
AcDbEntity
  8
補強金具150407_ﾃﾞﾌｫﾙ
  6
CONTINUOUS
 62
     7
100
AcDbLine
 10
341.682416057
 20
74.0837365001
 30
0.0
 11
341.6904429413
 21
74.3135963903
 31
0.0
  0
LINE
  5
526
330
342
100
AcDbEntity
  8
補強金具150407_ﾃﾞﾌｫﾙ
  6
CONTINUOUS
 62
     7
100
AcDbLine
 10
341.6904429413
 20
74.3135963903
 30
0.0
 11
341.4905647759
 21
74.3205762897
 31
0.0
  0
LINE
  5
527
330
342
100
AcDbEntity
  8
補強金具150407_ﾃﾞﾌｫﾙ
  6
CONTINUOUS
 62
     7
100
AcDbLine
 10
322.7293587832
 20
82.7228489749
 30
0.0
 11
327.9987886111
 21
74.7917194952
 31
0.0
  0
LINE
  5
528
330
342
100
AcDbEntity
  8
補強金具150407_ﾃﾞﾌｫﾙ
  6
CONTINUOUS
 62
     7
100
AcDbLine
 10
341.4825378916
 20
74.0907163995
 30
0.0
 11
341.4905647759
 21
74.3205762897
 31
0.0
  0
LINE
  5
529
330
342
100
AcDbEntity
  8
補強金具150407_ﾃﾞﾌｫﾙ
  6
CONTINUOUS
 62
     7
100
AcDbLine
 10
327.9987886111
 20
74.7917194952
 30
0.0
 11
327.9907617269
 21
74.5618596049
 31
0.0
  0
LINE
  5
52A
330
342
100
AcDbEntity
  8
補強金具150407_ﾃﾞﾌｫﾙ
  6
CONTINUOUS
 62
     7
100
AcDbLine
 10
328.4647373278
 20
98.0919952376
 30
0.0
 11
328.3876321491
 21
98.0407666794
 31
0.0
  0
LINE
  5
52B
330
342
100
AcDbEntity
  8
補強金具150407_ﾃﾞﾌｫﾙ
  6
CONTINUOUS
 62
     7
100
AcDbLine
 10
344.1980149169
 20
73.9958898522
 30
0.0
 11
344.3895868023
 21
74.1231699085
 31
0.0
  0
LINE
  5
52C
330
342
100
AcDbEntity
  8
補強金具150407_ﾃﾞﾌｫﾙ
  6
CONTINUOUS
 62
     7
100
AcDbLine
 10
344.3895868023
 20
74.1231699085
 30
0.0
 11
328.4647373278
 21
98.0919952376
 31
0.0
  0
LINE
  5
52D
330
342
100
AcDbEntity
  8
補強金具150407_ﾃﾞﾌｫﾙ
  6
CONTINUOUS
 62
     7
100
AcDbLine
 10
322.5891349318
 20
82.7761150193
 30
0.0
 11
322.7293587832
 21
82.7228489749
 31
0.0
  0
LINE
  5
52F
330
342
100
AcDbEntity
  8
DV2_ﾃﾞﾌｫﾙﾄ
  6
CONTINUOUS
 62
     7
100
AcDbLine
 10
327.7076860838
 20
141.4693021508
 30
0.0
 11
333.3876860838
 21
141.4693021508
 31
0.0
  0
LINE
  5
530
330
342
100
AcDbEntity
  8
DV2_ﾃﾞﾌｫﾙﾄ
  6
CONTINUOUS
 62
     7
100
AcDbLine
 10
333.3876860838
 20
141.4693021508
 30
0.0
 11
333.3876860838
 21
261.5093021508
 31
0.0
  0
LINE
  5
531
330
342
100
AcDbEntity
  8
DV2_ﾃﾞﾌｫﾙﾄ
  6
CONTINUOUS
 62
     7
100
AcDbLine
 10
333.3876860838
 20
261.5093021508
 30
0.0
 11
327.7076860838
 21
261.5093021508
 31
0.0
  0
LINE
  5
532
330
342
100
AcDbEntity
  8
DV2_ﾃﾞﾌｫﾙﾄ
  6
CONTINUOUS
 62
     7
100
AcDbLine
 10
327.7076860838
 20
261.5093021508
 30
0.0
 11
327.7076860838
 21
141.4693021508
 31
0.0
  0
LINE
  5
533
330
342
100
AcDbEntity
  8
DV2_ﾃﾞﾌｫﾙﾄ
  6
CONTINUOUS
 62
     7
100
AcDbLine
 10
333.3876860838
 20
158.2993021508
 30
0.0
 11
340.2476860838
 21
158.2993021508
 31
0.0
  0
LINE
  5
534
330
342
100
AcDbEntity
  8
DV2_ﾃﾞﾌｫﾙﾄ
  6
CONTINUOUS
 62
     7
100
AcDbLine
 10
340.2476860838
 20
158.2993021508
 30
0.0
 11
340.2476860838
 21
226.3993021508
 31
0.0
  0
LINE
  5
535
330
342
100
AcDbEntity
  8
DV2_ﾃﾞﾌｫﾙﾄ
  6
CONTINUOUS
 62
     7
100
AcDbLine
 10
340.2476860838
 20
226.3993021508
 30
0.0
 11
333.3876860838
 21
226.3993021508
 31
0.0
  0
POLYLINE
  5
537
330
342
100
AcDbEntity
  8
DV2_AUTO_-_HIDE
  6
CONTINUOUS
 62
     7
100
AcDb2dPolyline
 66
     1
 10
0.0
 20
0.0
 30
0.0
  0
VERTEX
  5
5F4
330
537
100
AcDbEntity
  8
DV2_AUTO_-_HIDE
  6
CONTINUOUS
 62
     7
100
AcDbVertex
100
AcDb2dVertex
 10
291.945753641
 20
261.1893021589
 30
0.0
  0
VERTEX
  5
5F5
330
537
100
AcDbEntity
  8
DV2_AUTO_-_HIDE
  6
CONTINUOUS
 62
     7
100
AcDbVertex
100
AcDb2dVertex
 10
291.8924203091
 20
261.5093021508
 30
0.0
  0
VERTEX
  5
5F6
330
537
100
AcDbEntity
  8
DV2_AUTO_-_HIDE
  6
CONTINUOUS
 62
     7
100
AcDbVertex
100
AcDb2dVertex
 10
291.8390869771
 20
261.1893021589
 30
0.0
  0
SEQEND
  5
5F7
330
537
100
AcDbEntity
  8
DV2_AUTO_-_HIDE
  6
CONTINUOUS
 62
     7
  0
POLYLINE
  5
538
330
342
100
AcDbEntity
  8
DV2_AUTO_-_HIDE
  6
CONTINUOUS
 62
     7
100
AcDb2dPolyline
 66
     1
 10
0.0
 20
0.0
 30
0.0
  0
VERTEX
  5
5F8
330
538
100
AcDbEntity
  8
DV2_AUTO_-_HIDE
  6
CONTINUOUS
 62
     7
100
AcDbVertex
100
AcDb2dVertex
 10
291.945753641
 20
57.3472951161
 30
0.0
  0
VERTEX
  5
5F9
330
538
100
AcDbEntity
  8
DV2_AUTO_-_HIDE
  6
CONTINUOUS
 62
     7
100
AcDbVertex
100
AcDb2dVertex
 10
291.8924203091
 20
57.0272951241
 30
0.0
  0
VERTEX
  5
5FA
330
538
100
AcDbEntity
  8
DV2_AUTO_-_HIDE
  6
CONTINUOUS
 62
     7
100
AcDbVertex
100
AcDb2dVertex
 10
291.8390869771
 20
57.3472951161
 30
0.0
  0
SEQEND
  5
5FB
330
538
100
AcDbEntity
  8
DV2_AUTO_-_HIDE
  6
CONTINUOUS
 62
     7
  0
LINE
  5
539
330
342
100
AcDbEntity
  8
DV2_AUTO_-_HIDE
  6
CONTINUOUS
 62
     7
100
AcDbLine
 10
327.579686087
 20
261.5093021508
 30
0.0
 11
291.7324203131
 21
261.5093021508
 31
0.0
  0
LINE
  5
53A
330
342
100
AcDbEntity
  8
DV2_AUTO_-_HIDE
  6
CONTINUOUS
 62
     7
100
AcDbLine
 10
300.3826793582
 20
57.0273021508
 30
0.0
 11
291.7324203131
 21
57.0273021508
 31
0.0
  0
LINE
  5
53B
330
342
100
AcDbEntity
  8
DV2_AUTO_-_HIDE
  6
CONTINUOUS
 62
     7
100
AcDbLine
 10
291.8924203091
 20
261.5093021508
 30
0.0
 11
291.8924203091
 21
57.0272951241
 31
0.0
  0
TEXT
  5
53C
330
342
100
AcDbEntity
  8
DV2_AUTO_-_HIDE
  6
CONTINUOUS
 62
     7
100
AcDbText
 10
291.8124203091
 20
158.5170791253
 30
0.0
 40
0.32
  1
2044.82
 50
90.0
  7
SEACAD_SEANSI_TTF
 11
291.4924203091
 21
158.5170791253
 31
0.0
100
AcDbText
 73
     3
  0
POLYLINE
  5
53D
330
342
100
AcDbEntity
  8
DV2_AUTO_-_HIDE
  6
CONTINUOUS
 62
     7
100
AcDb2dPolyline
 66
     1
 10
0.0
 20
0.0
 30
0.0
  0
VERTEX
  5
5FC
330
53D
100
AcDbEntity
  8
DV2_AUTO_-_HIDE
  6
CONTINUOUS
 62
     7
100
AcDbVertex
100
AcDb2dVertex
 10
308.5193183493
 20
261.1893021589
 30
0.0
  0
VERTEX
  5
5FD
330
53D
100
AcDbEntity
  8
DV2_AUTO_-_HIDE
  6
CONTINUOUS
 62
     7
100
AcDbVertex
100
AcDb2dVertex
 10
308.4659850173
 20
261.5093021508
 30
0.0
  0
VERTEX
  5
5FE
330
53D
100
AcDbEntity
  8
DV2_AUTO_-_HIDE
  6
CONTINUOUS
 62
     7
100
AcDbVertex
100
AcDb2dVertex
 10
308.4126516853
 20
261.1893021589
 30
0.0
  0
SEQEND
  5
5FF
330
53D
100
AcDbEntity
  8
DV2_AUTO_-_HIDE
  6
CONTINUOUS
 62
     7
  0
POLYLINE
  5
53E
330
342
100
AcDbEntity
  8
DV2_AUTO_-_HIDE
  6
CONTINUOUS
 62
     7
100
AcDb2dPolyline
 66
     1
 10
0.0
 20
0.0
 30
0.0
  0
VERTEX
  5
600
330
53E
100
AcDbEntity
  8
DV2_AUTO_-_HIDE
  6
CONTINUOUS
 62
     7
100
AcDbVertex
100
AcDb2dVertex
 10
308.5193183493
 20
141.7893026577
 30
0.0
  0
VERTEX
  5
601
330
53E
100
AcDbEntity
  8
DV2_AUTO_-_HIDE
  6
CONTINUOUS
 62
     7
100
AcDbVertex
100
AcDb2dVertex
 10
308.4659850173
 20
141.4693026658
 30
0.0
  0
VERTEX
  5
602
330
53E
100
AcDbEntity
  8
DV2_AUTO_-_HIDE
  6
CONTINUOUS
 62
     7
100
AcDbVertex
100
AcDb2dVertex
 10
308.4126516853
 20
141.7893026577
 30
0.0
  0
SEQEND
  5
603
330
53E
100
AcDbEntity
  8
DV2_AUTO_-_HIDE
  6
CONTINUOUS
 62
     7
  0
LINE
  5
53F
330
342
100
AcDbEntity
  8
DV2_AUTO_-_HIDE
  6
CONTINUOUS
 62
     7
100
AcDbLine
 10
327.579686087
 20
261.5093021508
 30
0.0
 11
308.3059850213
 21
261.5093021508
 31
0.0
  0
LINE
  5
540
330
342
100
AcDbEntity
  8
DV2_AUTO_-_HIDE
  6
CONTINUOUS
 62
     7
100
AcDbLine
 10
327.579686087
 20
141.4693021508
 30
0.0
 11
308.3059850213
 21
141.4693021508
 31
0.0
  0
LINE
  5
541
330
342
100
AcDbEntity
  8
DV2_AUTO_-_HIDE
  6
CONTINUOUS
 62
     7
100
AcDbLine
 10
308.4659850173
 20
261.5093021508
 30
0.0
 11
308.4659850173
 21
141.4693026658
 31
0.0
  0
TEXT
  5
542
330
342
100
AcDbEntity
  8
DV2_AUTO_-_HIDE
  6
CONTINUOUS
 62
     7
100
AcDbText
 10
308.3859850173
 20
200.8551560668
 30
0.0
 40
0.32
  1
1200.4
 50
90.0
  7
SEACAD_SEANSI_TTF
 11
308.0659850173
 21
200.8551560668
 31
0.0
100
AcDbText
 73
     3
  0
POLYLINE
  5
543
330
342
100
AcDbEntity
  8
DV2_AUTO_-_HIDE
  6
CONTINUOUS
 62
     7
100
AcDb2dPolyline
 66
     1
 10
0.0
 20
0.0
 30
0.0
  0
VERTEX
  5
604
330
543
100
AcDbEntity
  8
DV2_AUTO_-_HIDE
  6
CONTINUOUS
 62
     7
100
AcDbVertex
100
AcDb2dVertex
 10
328.0276860757
 20
117.4316068306
 30
0.0
  0
VERTEX
  5
605
330
543
100
AcDbEntity
  8
DV2_AUTO_-_HIDE
  6
CONTINUOUS
 62
     7
100
AcDbVertex
100
AcDb2dVertex
 10
327.7076860838
 20
117.3782734986
 30
0.0
  0
VERTEX
  5
606
330
543
100
AcDbEntity
  8
DV2_AUTO_-_HIDE
  6
CONTINUOUS
 62
     7
100
AcDbVertex
100
AcDb2dVertex
 10
328.0276860757
 20
117.3249401666
 30
0.0
  0
SEQEND
  5
607
330
543
100
AcDbEntity
  8
DV2_AUTO_-_HIDE
  6
CONTINUOUS
 62
     7
  0
POLYLINE
  5
544
330
342
100
AcDbEntity
  8
DV2_AUTO_-_HIDE
  6
CONTINUOUS
 62
     7
100
AcDb2dPolyline
 66
     1
 10
0.0
 20
0.0
 30
0.0
  0
VERTEX
  5
608
330
544
100
AcDbEntity
  8
DV2_AUTO_-_HIDE
  6
CONTINUOUS
 62
     7
100
AcDbVertex
100
AcDb2dVertex
 10
333.0676861288
 20
117.4316068306
 30
0.0
  0
VERTEX
  5
609
330
544
100
AcDbEntity
  8
DV2_AUTO_-_HIDE
  6
CONTINUOUS
 62
     7
100
AcDbVertex
100
AcDb2dVertex
 10
333.3876861207
 20
117.3782734986
 30
0.0
  0
VERTEX
  5
60A
330
544
100
AcDbEntity
  8
DV2_AUTO_-_HIDE
  6
CONTINUOUS
 62
     7
100
AcDbVertex
100
AcDb2dVertex
 10
333.0676861288
 20
117.3249401666
 30
0.0
  0
SEQEND
  5
60B
330
544
100
AcDbEntity
  8
DV2_AUTO_-_HIDE
  6
CONTINUOUS
 62
     7
  0
LINE
  5
545
330
342
100
AcDbEntity
  8
DV2_AUTO_-_HIDE
  6
CONTINUOUS
 62
     7
100
AcDbLine
 10
327.7076860838
 20
141.3413076516
 30
0.0
 11
327.7076860838
 21
117.2182735027
 31
0.0
  0
LINE
  5
546
330
342
100
AcDbEntity
  8
DV2_AUTO_-_HIDE
  6
CONTINUOUS
 62
     7
100
AcDbLine
 10
333.3876860838
 20
141.3413076516
 30
0.0
 11
333.3876860838
 21
117.2182735027
 31
0.0
  0
LINE
  5
547
330
342
100
AcDbEntity
  8
DV2_AUTO_-_HIDE
  6
CONTINUOUS
 62
     7
100
AcDbLine
 10
327.7076860838
 20
117.3782734986
 30
0.0
 11
333.3876861207
 21
117.3782734986
 31
0.0
  0
TEXT
  5
548
330
342
100
AcDbEntity
  8
DV2_AUTO_-_HIDE
  6
CONTINUOUS
 62
     7
100
AcDbText
 10
330.1476861023
 20
117.4582734986
 30
0.0
 40
0.32
  1
56.8
  7
SEACAD_SEANSI_TTF
 11
330.1476861023
 21
117.7782734986
 31
0.0
100
AcDbText
 73
     3
  0
POLYLINE
  5
549
330
342
100
AcDbEntity
  8
DV2_AUTO_-_HIDE
  6
CONTINUOUS
 62
     7
100
AcDb2dPolyline
 66
     1
 10
0.0
 20
0.0
 30
0.0
  0
VERTEX
  5
60C
330
549
100
AcDbEntity
  8
DV2_AUTO_-_HIDE
  6
CONTINUOUS
 62
     7
100
AcDbVertex
100
AcDb2dVertex
 10
339.9276860919
 20
235.6921931864
 30
0.0
  0
VERTEX
  5
60D
330
549
100
AcDbEntity
  8
DV2_AUTO_-_HIDE
  6
CONTINUOUS
 62
     7
100
AcDbVertex
100
AcDb2dVertex
 10
340.2476860838
 20
235.7455265184
 30
0.0
  0
VERTEX
  5
60E
330
549
100
AcDbEntity
  8
DV2_AUTO_-_HIDE
  6
CONTINUOUS
 62
     7
100
AcDbVertex
100
AcDb2dVertex
 10
339.9276860919
 20
235.7988598504
 30
0.0
  0
SEQEND
  5
60F
330
549
100
AcDbEntity
  8
DV2_AUTO_-_HIDE
  6
CONTINUOUS
 62
     7
  0
POLYLINE
  5
54A
330
342
100
AcDbEntity
  8
DV2_AUTO_-_HIDE
  6
CONTINUOUS
 62
     7
100
AcDb2dPolyline
 66
     1
 10
0.0
 20
0.0
 30
0.0
  0
VERTEX
  5
610
330
54A
100
AcDbEntity
  8
DV2_AUTO_-_HIDE
  6
CONTINUOUS
 62
     7
100
AcDbVertex
100
AcDb2dVertex
 10
328.0276853986
 20
235.6921931864
 30
0.0
  0
VERTEX
  5
611
330
54A
100
AcDbEntity
  8
DV2_AUTO_-_HIDE
  6
CONTINUOUS
 62
     7
100
AcDbVertex
100
AcDb2dVertex
 10
327.7076854067
 20
235.7455265184
 30
0.0
  0
VERTEX
  5
612
330
54A
100
AcDbEntity
  8
DV2_AUTO_-_HIDE
  6
CONTINUOUS
 62
     7
100
AcDbVertex
100
AcDb2dVertex
 10
328.0276853986
 20
235.7988598504
 30
0.0
  0
SEQEND
  5
613
330
54A
100
AcDbEntity
  8
DV2_AUTO_-_HIDE
  6
CONTINUOUS
 62
     7
  0
LINE
  5
54B
330
342
100
AcDbEntity
  8
DV2_AUTO_-_HIDE
  6
CONTINUOUS
 62
     7
100
AcDbLine
 10
340.2476860838
 20
226.5273021476
 30
0.0
 11
340.2476860838
 21
235.9055265144
 31
0.0
  0
LINE
  5
54C
330
342
100
AcDbEntity
  8
DV2_AUTO_-_HIDE
  6
CONTINUOUS
 62
     7
100
AcDbLine
 10
340.2476860838
 20
235.7455265184
 30
0.0
 11
327.7076854067
 21
235.7455265184
 31
0.0
  0
TEXT
  5
54D
330
342
100
AcDbEntity
  8
DV2_AUTO_-_HIDE
  6
CONTINUOUS
 62
     7
100
AcDbText
 10
333.4606125745
 20
235.8255265184
 30
0.0
 40
0.32
  1
125.4
  7
SEACAD_SEANSI_TTF
 11
333.4606125745
 21
236.1455265184
 31
0.0
100
AcDbText
 73
     3
  0
POLYLINE
  5
54E
330
342
100
AcDbEntity
  8
DV2_AUTO_-_HIDE
  6
CONTINUOUS
 62
     7
100
AcDb2dPolyline
 66
     1
 10
0.0
 20
0.0
 30
0.0
  0
VERTEX
  5
614
330
54E
100
AcDbEntity
  8
DV2_AUTO_-_HIDE
  6
CONTINUOUS
 62
     7
100
AcDbVertex
100
AcDb2dVertex
 10
346.4569307171
 20
261.1893021589
 30
0.0
  0
VERTEX
  5
615
330
54E
100
AcDbEntity
  8
DV2_AUTO_-_HIDE
  6
CONTINUOUS
 62
     7
100
AcDbVertex
100
AcDb2dVertex
 10
346.510264049
 20
261.5093021508
 30
0.0
  0
VERTEX
  5
616
330
54E
100
AcDbEntity
  8
DV2_AUTO_-_HIDE
  6
CONTINUOUS
 62
     7
100
AcDbVertex
100
AcDb2dVertex
 10
346.563597381
 20
261.1893021589
 30
0.0
  0
SEQEND
  5
617
330
54E
100
AcDbEntity
  8
DV2_AUTO_-_HIDE
  6
CONTINUOUS
 62
     7
  0
POLYLINE
  5
54F
330
342
100
AcDbEntity
  8
DV2_AUTO_-_HIDE
  6
CONTINUOUS
 62
     7
100
AcDb2dPolyline
 66
     1
 10
0.0
 20
0.0
 30
0.0
  0
VERTEX
  5
618
330
54F
100
AcDbEntity
  8
DV2_AUTO_-_HIDE
  6
CONTINUOUS
 62
     7
100
AcDbVertex
100
AcDb2dVertex
 10
346.4569307171
 20
226.7193023668
 30
0.0
  0
VERTEX
  5
619
330
54F
100
AcDbEntity
  8
DV2_AUTO_-_HIDE
  6
CONTINUOUS
 62
     7
100
AcDbVertex
100
AcDb2dVertex
 10
346.510264049
 20
226.3993023749
 30
0.0
  0
VERTEX
  5
61A
330
54F
100
AcDbEntity
  8
DV2_AUTO_-_HIDE
  6
CONTINUOUS
 62
     7
100
AcDbVertex
100
AcDb2dVertex
 10
346.563597381
 20
226.7193023668
 30
0.0
  0
SEQEND
  5
61B
330
54F
100
AcDbEntity
  8
DV2_AUTO_-_HIDE
  6
CONTINUOUS
 62
     7
  0
LINE
  5
550
330
342
100
AcDbEntity
  8
DV2_AUTO_-_HIDE
  6
CONTINUOUS
 62
     7
100
AcDbLine
 10
333.5156860805
 20
261.5093021508
 30
0.0
 11
346.670264045
 21
261.5093021508
 31
0.0
  0
LINE
  5
551
330
342
100
AcDbEntity
  8
DV2_AUTO_-_HIDE
  6
CONTINUOUS
 62
     7
100
AcDbLine
 10
340.3756860805
 20
226.3993021508
 30
0.0
 11
346.670264045
 21
226.3993021508
 31
0.0
  0
LINE
  5
552
330
342
100
AcDbEntity
  8
DV2_AUTO_-_HIDE
  6
CONTINUOUS
 62
     7
100
AcDbLine
 10
346.510264049
 20
261.5093021508
 30
0.0
 11
346.510264049
 21
226.3993023749
 31
0.0
  0
TEXT
  5
553
330
342
100
AcDbEntity
  8
DV2_AUTO_-_HIDE
  6
CONTINUOUS
 62
     7
100
AcDbText
 10
346.430264049
 20
243.4372290921
 30
0.0
 40
0.32
  1
351.1
 50
90.0
  7
SEACAD_SEANSI_TTF
 11
346.110264049
 21
243.4372290921
 31
0.0
100
AcDbText
 73
     3
  0
POLYLINE
  5
554
330
342
100
AcDbEntity
  8
DV2_AUTO_-_HIDE
  6
CONTINUOUS
 62
     7
100
AcDb2dPolyline
 66
     1
 10
0.0
 20
0.0
 30
0.0
  0
VERTEX
  5
61C
330
554
100
AcDbEntity
  8
DV2_AUTO_-_HIDE
  6
CONTINUOUS
 62
     7
100
AcDbVertex
100
AcDb2dVertex
 10
403.2131217776
 20
158.6193021427
 30
0.0
  0
VERTEX
  5
61D
330
554
100
AcDbEntity
  8
DV2_AUTO_-_HIDE
  6
CONTINUOUS
 62
     7
100
AcDbVertex
100
AcDb2dVertex
 10
403.2664551096
 20
158.2993021508
 30
0.0
  0
VERTEX
  5
61E
330
554
100
AcDbEntity
  8
DV2_AUTO_-_HIDE
  6
CONTINUOUS
 62
     7
100
AcDbVertex
100
AcDb2dVertex
 10
403.3197884416
 20
158.6193021427
 30
0.0
  0
SEQEND
  5
61F
330
554
100
AcDbEntity
  8
DV2_AUTO_-_HIDE
  6
CONTINUOUS
 62
     7
  0
POLYLINE
  5
555
330
342
100
AcDbEntity
  8
DV2_AUTO_-_HIDE
  6
CONTINUOUS
 62
     7
100
AcDb2dPolyline
 66
     1
 10
0.0
 20
0.0
 30
0.0
  0
VERTEX
  5
620
330
555
100
AcDbEntity
  8
DV2_AUTO_-_HIDE
  6
CONTINUOUS
 62
     7
100
AcDbVertex
100
AcDb2dVertex
 10
403.2131217776
 20
226.0793015867
 30
0.0
  0
VERTEX
  5
621
330
555
100
AcDbEntity
  8
DV2_AUTO_-_HIDE
  6
CONTINUOUS
 62
     7
100
AcDbVertex
100
AcDb2dVertex
 10
403.2664551096
 20
226.3993015786
 30
0.0
  0
VERTEX
  5
622
330
555
100
AcDbEntity
  8
DV2_AUTO_-_HIDE
  6
CONTINUOUS
 62
     7
100
AcDbVertex
100
AcDb2dVertex
 10
403.3197884416
 20
226.0793015867
 30
0.0
  0
SEQEND
  5
623
330
555
100
AcDbEntity
  8
DV2_AUTO_-_HIDE
  6
CONTINUOUS
 62
     7
  0
LINE
  5
556
330
342
100
AcDbEntity
  8
DV2_AUTO_-_HIDE
  6
CONTINUOUS
 62
     7
100
AcDbLine
 10
340.3756860805
 20
158.2993021508
 30
0.0
 11
403.4264551055
 21
158.2993021508
 31
0.0
  0
LINE
  5
557
330
342
100
AcDbEntity
  8
DV2_AUTO_-_HIDE
  6
CONTINUOUS
 62
     7
100
AcDbLine
 10
340.3756860805
 20
226.3993021508
 30
0.0
 11
403.4264551055
 21
226.3993021508
 31
0.0
  0
LINE
  5
558
330
342
100
AcDbEntity
  8
DV2_AUTO_-_HIDE
  6
CONTINUOUS
 62
     7
100
AcDbLine
 10
403.2664551096
 20
158.2993021508
 30
0.0
 11
403.2664551096
 21
226.3993015786
 31
0.0
  0
TEXT
  5
559
330
342
100
AcDbEntity
  8
DV2_AUTO_-_HIDE
  6
CONTINUOUS
 62
     7
100
AcDbText
 10
403.1864551096
 20
191.9980823525
 30
0.0
 40
0.32
  1
681
 50
90.0
  7
SEACAD_SEANSI_TTF
 11
402.8664551096
 21
191.9980823525
 31
0.0
100
AcDbText
 73
     3
  0
ENDBLK
  5
55B
330
342
100
AcDbEntity
  8
0
100
AcDbBlockEnd
  0
BLOCK
  5
564
330
55C
100
AcDbEntity
  8
0
100
AcDbBlockBegin
  2
GDIMGGROUP
 70
     0
 10
0.0
 20
0.0
 30
0.0
  3
GDIMGGROUP
  1

  0
POLYLINE
  5
55E
330
55C
100
AcDbEntity
  8
DEFAULT
  6
CONTINUOUS
 62
   136
100
AcDb2dPolyline
 66
     1
 10
0.0
 20
0.0
 30
0.0
  0
VERTEX
  5
624
330
55E
100
AcDbEntity
  8
DEFAULT
  6
CONTINUOUS
 62
   136
100
AcDbVertex
100
AcDb2dVertex
 10
99.5005897435
 20
44.2085842294
 30
0.0
  0
VERTEX
  5
625
330
55E
100
AcDbEntity
  8
DEFAULT
  6
CONTINUOUS
 62
   136
100
AcDbVertex
100
AcDb2dVertex
 10
93.1005899052
 20
43.1419175897
 30
0.0
  0
VERTEX
  5
626
330
55E
100
AcDbEntity
  8
DEFAULT
  6
CONTINUOUS
 62
   136
100
AcDbVertex
100
AcDb2dVertex
 10
99.5005897435
 20
42.07525095
 30
0.0
  0
SEQEND
  5
627
330
55E
100
AcDbEntity
  8
DEFAULT
  6
CONTINUOUS
 62
   136
  0
POLYLINE
  5
55F
330
55C
100
AcDbEntity
  8
DEFAULT
  6
CONTINUOUS
 62
   136
100
AcDb2dPolyline
 66
     1
 10
0.0
 20
0.0
 30
0.0
  0
VERTEX
  5
628
330
55F
100
AcDbEntity
  8
DEFAULT
  6
CONTINUOUS
 62
   136
100
AcDbVertex
100
AcDb2dVertex
 10
175.840588026
 20
44.2085842294
 30
0.0
  0
VERTEX
  5
629
330
55F
100
AcDbEntity
  8
DEFAULT
  6
CONTINUOUS
 62
   136
100
AcDbVertex
100
AcDb2dVertex
 10
182.2405878643
 20
43.1419175897
 30
0.0
  0
VERTEX
  5
62A
330
55F
100
AcDbEntity
  8
DEFAULT
  6
CONTINUOUS
 62
   136
100
AcDbVertex
100
AcDb2dVertex
 10
175.840588026
 20
42.07525095
 30
0.0
  0
SEQEND
  5
62B
330
55F
100
AcDbEntity
  8
DEFAULT
  6
CONTINUOUS
 62
   136
  0
LINE
  5
560
330
55C
100
AcDbEntity
  8
DEFAULT
  6
CONTINUOUS
 62
   136
100
AcDbLine
 10
93.1005899052
 20
65.2985053916
 30
0.0
 11
93.1005899052
 21
39.9419176706
 31
0.0
  0
LINE
  5
561
330
55C
100
AcDbEntity
  8
DEFAULT
  6
CONTINUOUS
 62
   136
100
AcDbLine
 10
182.2405899052
 20
65.2985053916
 30
0.0
 11
182.2405899052
 21
39.9419176706
 31
0.0
  0
LINE
  5
562
330
55C
100
AcDbEntity
  8
DEFAULT
  6
CONTINUOUS
 62
   136
100
AcDbLine
 10
93.1005899052
 20
43.1419175897
 30
0.0
 11
182.2405878643
 21
43.1419175897
 31
0.0
  0
TEXT
  5
563
330
55C
100
AcDbEntity
  8
DEFAULT
  6
CONTINUOUS
 62
   136
100
AcDbText
 10
127.3291254701
 20
44.7419175897
 30
0.0
 40
6.4
  1
891.4
  7
SEACAD_SEANSI_TTF
 11
127.3291254701
 21
51.1419175897
 31
0.0
100
AcDbText
 73
     3
  0
ENDBLK
  5
565
330
55C
100
AcDbEntity
  8
0
100
AcDbBlockEnd
  0
BLOCK
  5
56E
330
566
100
AcDbEntity
  8
0
100
AcDbBlockBegin
  2
GDIMGGROUP1
 70
     0
 10
0.0
 20
0.0
 30
0.0
  3
GDIMGGROUP1
  1

  0
POLYLINE
  5
568
330
566
100
AcDbEntity
  8
DEFAULT
  6
CONTINUOUS
 62
   136
100
AcDb2dPolyline
 66
     1
 10
0.0
 20
0.0
 30
0.0
  0
VERTEX
  5
62C
330
568
100
AcDbEntity
  8
DEFAULT
  6
CONTINUOUS
 62
   136
100
AcDbVertex
100
AcDb2dVertex
 10
375.1368893005
 20
44.2085842294
 30
0.0
  0
VERTEX
  5
62D
330
568
100
AcDbEntity
  8
DEFAULT
  6
CONTINUOUS
 62
   136
100
AcDbVertex
100
AcDb2dVertex
 10
381.5368891388
 20
43.1419175897
 30
0.0
  0
VERTEX
  5
62E
330
568
100
AcDbEntity
  8
DEFAULT
  6
CONTINUOUS
 62
   136
100
AcDbVertex
100
AcDb2dVertex
 10
375.1368893005
 20
42.07525095
 30
0.0
  0
SEQEND
  5
62F
330
568
100
AcDbEntity
  8
DEFAULT
  6
CONTINUOUS
 62
   136
  0
POLYLINE
  5
569
330
566
100
AcDbEntity
  8
DEFAULT
  6
CONTINUOUS
 62
   136
100
AcDb2dPolyline
 66
     1
 10
0.0
 20
0.0
 30
0.0
  0
VERTEX
  5
630
330
569
100
AcDbEntity
  8
DEFAULT
  6
CONTINUOUS
 62
   136
100
AcDbVertex
100
AcDb2dVertex
 10
306.7356783591
 20
44.2085842294
 30
0.0
  0
VERTEX
  5
631
330
569
100
AcDbEntity
  8
DEFAULT
  6
CONTINUOUS
 62
   136
100
AcDbVertex
100
AcDb2dVertex
 10
300.3356785208
 20
43.1419175897
 30
0.0
  0
VERTEX
  5
632
330
569
100
AcDbEntity
  8
DEFAULT
  6
CONTINUOUS
 62
   136
100
AcDbVertex
100
AcDb2dVertex
 10
306.7356783591
 20
42.07525095
 30
0.0
  0
SEQEND
  5
633
330
569
100
AcDbEntity
  8
DEFAULT
  6
CONTINUOUS
 62
   136
  0
LINE
  5
56A
330
566
100
AcDbEntity
  8
DEFAULT
  6
CONTINUOUS
 62
   136
100
AcDbLine
 10
381.5368891388
 20
65.2985053916
 30
0.0
 11
381.5368891388
 21
39.9419176706
 31
0.0
  0
LINE
  5
56B
330
566
100
AcDbEntity
  8
DEFAULT
  6
CONTINUOUS
 62
   136
100
AcDbLine
 10
300.335679355
 20
57.1173022155
 30
0.0
 11
300.335679355
 21
39.9419176706
 31
0.0
  0
LINE
  5
56C
330
566
100
AcDbEntity
  8
DEFAULT
  6
CONTINUOUS
 62
   136
100
AcDbLine
 10
381.5368891388
 20
43.1419175897
 30
0.0
 11
300.3356785208
 21
43.1419175897
 31
0.0
  0
TEXT
  5
56D
330
566
100
AcDbEntity
  8
DEFAULT
  6
CONTINUOUS
 62
   136
100
AcDbText
 10
333.9118935859
 20
44.7419175897
 30
0.0
 40
6.4
  1
812
  7
SEACAD_SEANSI_TTF
 11
333.9118935859
 21
51.1419175897
 31
0.0
100
AcDbText
 73
     3
  0
ENDBLK
  5
56F
330
566
100
AcDbEntity
  8
0
100
AcDbBlockEnd
  0
BLOCK
  5
578
330
570
100
AcDbEntity
  8
0
100
AcDbBlockBegin
  2
GDIMGGROUP2
 70
     0
 10
0.0
 20
0.0
 30
0.0
  3
GDIMGGROUP2
  1

  0
POLYLINE
  5
572
330
570
100
AcDbEntity
  8
DEFAULT
  6
CONTINUOUS
 62
   136
100
AcDb2dPolyline
 66
     1
 10
0.0
 20
0.0
 30
0.0
  0
VERTEX
  5
634
330
572
100
AcDbEntity
  8
DEFAULT
  6
CONTINUOUS
 62
   136
100
AcDbVertex
100
AcDb2dVertex
 10
406.0103597393
 20
63.4285051652
 30
0.0
  0
VERTEX
  5
635
330
572
100
AcDbEntity
  8
DEFAULT
  6
CONTINUOUS
 62
   136
100
AcDbVertex
100
AcDb2dVertex
 10
407.0770263791
 20
57.0285053269
 30
0.0
  0
VERTEX
  5
636
330
572
100
AcDbEntity
  8
DEFAULT
  6
CONTINUOUS
 62
   136
100
AcDbVertex
100
AcDb2dVertex
 10
408.1436930188
 20
63.4285051652
 30
0.0
  0
SEQEND
  5
637
330
572
100
AcDbEntity
  8
DEFAULT
  6
CONTINUOUS
 62
   136
  0
POLYLINE
  5
573
330
570
100
AcDbEntity
  8
DEFAULT
  6
CONTINUOUS
 62
   136
100
AcDb2dPolyline
 66
     1
 10
0.0
 20
0.0
 30
0.0
  0
VERTEX
  5
638
330
573
100
AcDbEntity
  8
DEFAULT
  6
CONTINUOUS
 62
   136
100
AcDbVertex
100
AcDb2dVertex
 10
406.0103597393
 20
201.1285050118
 30
0.0
  0
VERTEX
  5
639
330
573
100
AcDbEntity
  8
DEFAULT
  6
CONTINUOUS
 62
   136
100
AcDbVertex
100
AcDb2dVertex
 10
407.0770263791
 20
207.5285048501
 30
0.0
  0
VERTEX
  5
63A
330
573
100
AcDbEntity
  8
DEFAULT
  6
CONTINUOUS
 62
   136
100
AcDbVertex
100
AcDb2dVertex
 10
408.1436930188
 20
201.1285050118
 30
0.0
  0
SEQEND
  5
63B
330
573
100
AcDbEntity
  8
DEFAULT
  6
CONTINUOUS
 62
   136
  0
LINE
  5
574
330
570
100
AcDbEntity
  8
DEFAULT
  6
CONTINUOUS
 62
   136
100
AcDbLine
 10
384.1218890741
 20
57.0285053269
 30
0.0
 11
410.2770262982
 21
57.0285053269
 31
0.0
  0
LINE
  5
575
330
570
100
AcDbEntity
  8
DEFAULT
  6
CONTINUOUS
 62
   136
100
AcDbLine
 10
368.7908219782
 20
207.5285053269
 30
0.0
 11
410.2770262982
 21
207.5285053269
 31
0.0
  0
LINE
  5
576
330
570
100
AcDbEntity
  8
DEFAULT
  6
CONTINUOUS
 62
   136
100
AcDbLine
 10
407.0770263791
 20
57.0285053269
 30
0.0
 11
407.0770263791
 21
207.5285048501
 31
0.0
  0
TEXT
  5
577
330
570
100
AcDbEntity
  8
DEFAULT
  6
CONTINUOUS
 62
   136
100
AcDbText
 10
405.4770263791
 20
122.91265143
 30
0.0
 40
6.4
  1
1505
 50
90.0
  7
SEACAD_SEANSI_TTF
 11
399.0770263791
 21
122.91265143
 31
0.0
100
AcDbText
 73
     3
  0
ENDBLK
  5
579
330
570
100
AcDbEntity
  8
0
100
AcDbBlockEnd
  0
BLOCK
  5
582
330
57A
100
AcDbEntity
  8
0
100
AcDbBlockBegin
  2
GDIMGGROUP3
 70
     0
 10
0.0
 20
0.0
 30
0.0
  3
GDIMGGROUP3
  1

  0
POLYLINE
  5
57C
330
57A
100
AcDbEntity
  8
DEFAULT
  6
CONTINUOUS
 62
   136
100
AcDb2dPolyline
 66
     1
 10
0.0
 20
0.0
 30
0.0
  0
VERTEX
  5
63C
330
57C
100
AcDbEntity
  8
DEFAULT
  6
CONTINUOUS
 62
   136
100
AcDbVertex
100
AcDb2dVertex
 10
21.3491219104
 20
63.4273019891
 30
0.0
  0
VERTEX
  5
63D
330
57C
100
AcDbEntity
  8
DEFAULT
  6
CONTINUOUS
 62
   136
100
AcDbVertex
100
AcDb2dVertex
 10
20.2824552707
 20
57.0273021508
 30
0.0
  0
VERTEX
  5
63E
330
57C
100
AcDbEntity
  8
DEFAULT
  6
CONTINUOUS
 62
   136
100
AcDbVertex
100
AcDb2dVertex
 10
19.215788631
 20
63.4273019891
 30
0.0
  0
SEQEND
  5
63F
330
57C
100
AcDbEntity
  8
DEFAULT
  6
CONTINUOUS
 62
   136
  0
POLYLINE
  5
57D
330
57A
100
AcDbEntity
  8
DEFAULT
  6
CONTINUOUS
 62
   136
100
AcDb2dPolyline
 66
     1
 10
0.0
 20
0.0
 30
0.0
  0
VERTEX
  5
640
330
57D
100
AcDbEntity
  8
DEFAULT
  6
CONTINUOUS
 62
   136
100
AcDbVertex
100
AcDb2dVertex
 10
21.3491219104
 20
255.1107815739
 30
0.0
  0
VERTEX
  5
641
330
57D
100
AcDbEntity
  8
DEFAULT
  6
CONTINUOUS
 62
   136
100
AcDbVertex
100
AcDb2dVertex
 10
20.2824552707
 20
261.5107814122
 30
0.0
  0
VERTEX
  5
642
330
57D
100
AcDbEntity
  8
DEFAULT
  6
CONTINUOUS
 62
   136
100
AcDbVertex
100
AcDb2dVertex
 10
19.215788631
 20
255.1107815739
 30
0.0
  0
SEQEND
  5
643
330
57D
100
AcDbEntity
  8
DEFAULT
  6
CONTINUOUS
 62
   136
  0
LINE
  5
57E
330
57A
100
AcDbEntity
  8
DEFAULT
  6
CONTINUOUS
 62
   136
100
AcDbLine
 10
91.6355899698
 20
57.0273021508
 30
0.0
 11
17.0824553515
 21
57.0273021508
 31
0.0
  0
LINE
  5
57F
330
57A
100
AcDbEntity
  8
DEFAULT
  6
CONTINUOUS
 62
   136
100
AcDbLine
 10
37.0605899698
 20
261.5107815966
 30
0.0
 11
17.0824553515
 21
261.5107815966
 31
0.0
  0
LINE
  5
580
330
57A
100
AcDbEntity
  8
DEFAULT
  6
CONTINUOUS
 62
   136
100
AcDbLine
 10
20.2824552707
 20
57.0273021508
 30
0.0
 11
20.2824552707
 21
261.5107814122
 31
0.0
  0
TEXT
  5
581
330
57A
100
AcDbEntity
  8
DEFAULT
  6
CONTINUOUS
 62
   136
100
AcDbText
 10
18.6824552707
 20
149.903188123
 30
0.0
 40
6.4
  1
2045
 50
90.0
  7
SEACAD_SEANSI_TTF
 11
12.2824552707
 21
149.903188123
 31
0.0
100
AcDbText
 73
     3
  0
ENDBLK
  5
583
330
57A
100
AcDbEntity
  8
0
100
AcDbBlockEnd
  0
BLOCK
  5
58C
330
584
100
AcDbEntity
  8
0
100
AcDbBlockBegin
  2
GDIMGGROUP4
 70
     0
 10
0.0
 20
0.0
 30
0.0
  3
GDIMGGROUP4
  1

  0
POLYLINE
  5
586
330
584
100
AcDbEntity
  8
DEFAULT
  6
CONTINUOUS
 62
   136
100
AcDb2dPolyline
 66
     1
 10
0.0
 20
0.0
 30
0.0
  0
VERTEX
  5
644
330
586
100
AcDbEntity
  8
DEFAULT
  6
CONTINUOUS
 62
   136
100
AcDbVertex
100
AcDb2dVertex
 10
31.2845977963
 20
63.4273019891
 30
0.0
  0
VERTEX
  5
645
330
586
100
AcDbEntity
  8
DEFAULT
  6
CONTINUOUS
 62
   136
100
AcDbVertex
100
AcDb2dVertex
 10
30.2179311566
 20
57.0273021508
 30
0.0
  0
VERTEX
  5
646
330
586
100
AcDbEntity
  8
DEFAULT
  6
CONTINUOUS
 62
   136
100
AcDbVertex
100
AcDb2dVertex
 10
29.1512645168
 20
63.4273019891
 30
0.0
  0
SEQEND
  5
647
330
586
100
AcDbEntity
  8
DEFAULT
  6
CONTINUOUS
 62
   136
  0
POLYLINE
  5
587
330
584
100
AcDbEntity
  8
DEFAULT
  6
CONTINUOUS
 62
   136
100
AcDb2dPolyline
 66
     1
 10
0.0
 20
0.0
 30
0.0
  0
VERTEX
  5
648
330
587
100
AcDbEntity
  8
DEFAULT
  6
CONTINUOUS
 62
   136
100
AcDbVertex
100
AcDb2dVertex
 10
31.2845977963
 20
195.5957821842
 30
0.0
  0
VERTEX
  5
649
330
587
100
AcDbEntity
  8
DEFAULT
  6
CONTINUOUS
 62
   136
100
AcDbVertex
100
AcDb2dVertex
 10
30.2179311566
 20
201.9957820226
 30
0.0
  0
VERTEX
  5
64A
330
587
100
AcDbEntity
  8
DEFAULT
  6
CONTINUOUS
 62
   136
100
AcDbVertex
100
AcDb2dVertex
 10
29.1512645168
 20
195.5957821842
 30
0.0
  0
SEQEND
  5
64B
330
587
100
AcDbEntity
  8
DEFAULT
  6
CONTINUOUS
 62
   136
  0
LINE
  5
588
330
584
100
AcDbEntity
  8
DEFAULT
  6
CONTINUOUS
 62
   136
100
AcDbLine
 10
91.6355899698
 20
57.0273021508
 30
0.0
 11
27.0179312374
 21
57.0273021508
 31
0.0
  0
LINE
  5
589
330
584
100
AcDbEntity
  8
DEFAULT
  6
CONTINUOUS
 62
   136
100
AcDbLine
 10
38.7105899698
 20
201.9957815966
 30
0.0
 11
27.0179312374
 21
201.9957815966
 31
0.0
  0
LINE
  5
58A
330
584
100
AcDbEntity
  8
DEFAULT
  6
CONTINUOUS
 62
   136
100
AcDbLine
 10
30.2179311566
 20
57.0273021508
 30
0.0
 11
30.2179311566
 21
201.9957820226
 31
0.0
  0
TEXT
  5
58B
330
584
100
AcDbEntity
  8
DEFAULT
  6
CONTINUOUS
 62
   136
100
AcDbText
 10
28.6179311566
 20
120.1456884281
 30
0.0
 40
6.4
  1
1450
 50
90.0
  7
SEACAD_SEANSI_TTF
 11
22.2179311566
 21
120.1456884281
 31
0.0
100
AcDbText
 73
     3
  0
ENDBLK
  5
58D
330
584
100
AcDbEntity
  8
0
100
AcDbBlockEnd
  0
BLOCK
  5
596
330
58E
100
AcDbEntity
  8
0
100
AcDbBlockBegin
  2
GDIMGGROUP5
 70
     0
 10
0.0
 20
0.0
 30
0.0
  3
GDIMGGROUP5
  1

  0
POLYLINE
  5
590
330
58E
100
AcDbEntity
  8
DEFAULT
  6
CONTINUOUS
 62
   136
100
AcDb2dPolyline
 66
     1
 10
0.0
 20
0.0
 30
0.0
  0
VERTEX
  5
64C
330
590
100
AcDbEntity
  8
DEFAULT
  6
CONTINUOUS
 62
   136
100
AcDbVertex
100
AcDb2dVertex
 10
43.6205897435
 20
278.2161130256
 30
0.0
  0
VERTEX
  5
64D
330
590
100
AcDbEntity
  8
DEFAULT
  6
CONTINUOUS
 62
   136
100
AcDbVertex
100
AcDb2dVertex
 10
37.2205899052
 20
279.2827796653
 30
0.0
  0
VERTEX
  5
64E
330
590
100
AcDbEntity
  8
DEFAULT
  6
CONTINUOUS
 62
   136
100
AcDbVertex
100
AcDb2dVertex
 10
43.6205897435
 20
280.349446305
 30
0.0
  0
SEQEND
  5
64F
330
590
100
AcDbEntity
  8
DEFAULT
  6
CONTINUOUS
 62
   136
  0
POLYLINE
  5
591
330
58E
100
AcDbEntity
  8
DEFAULT
  6
CONTINUOUS
 62
   136
100
AcDb2dPolyline
 66
     1
 10
0.0
 20
0.0
 30
0.0
  0
VERTEX
  5
650
330
591
100
AcDbEntity
  8
DEFAULT
  6
CONTINUOUS
 62
   136
100
AcDbVertex
100
AcDb2dVertex
 10
231.7205933809
 20
278.2161130256
 30
0.0
  0
VERTEX
  5
651
330
591
100
AcDbEntity
  8
DEFAULT
  6
CONTINUOUS
 62
   136
100
AcDbVertex
100
AcDb2dVertex
 10
238.1205932192
 20
279.2827796653
 30
0.0
  0
VERTEX
  5
652
330
591
100
AcDbEntity
  8
DEFAULT
  6
CONTINUOUS
 62
   136
100
AcDbVertex
100
AcDb2dVertex
 10
231.7205933809
 20
280.349446305
 30
0.0
  0
SEQEND
  5
653
330
591
100
AcDbEntity
  8
DEFAULT
  6
CONTINUOUS
 62
   136
  0
LINE
  5
592
330
58E
100
AcDbEntity
  8
DEFAULT
  6
CONTINUOUS
 62
   136
100
AcDbLine
 10
37.2205899052
 20
261.670781532
 30
0.0
 11
37.2205899052
 21
282.4827795845
 31
0.0
  0
LINE
  5
593
330
58E
100
AcDbEntity
  8
DEFAULT
  6
CONTINUOUS
 62
   136
100
AcDbLine
 10
238.1205899052
 20
261.670781532
 30
0.0
 11
238.1205899052
 21
282.4827795845
 31
0.0
  0
LINE
  5
594
330
58E
100
AcDbEntity
  8
DEFAULT
  6
CONTINUOUS
 62
   136
100
AcDbLine
 10
37.2205899052
 20
279.2827796653
 30
0.0
 11
238.1205932192
 21
279.2827796653
 31
0.0
  0
TEXT
  5
595
330
58E
100
AcDbEntity
  8
DEFAULT
  6
CONTINUOUS
 62
   136
100
AcDbText
 10
128.3047379037
 20
280.8827796653
 30
0.0
 40
6.4
  1
2009
  7
SEACAD_SEANSI_TTF
 11
128.3047379037
 21
287.2827796653
 31
0.0
100
AcDbText
 73
     3
  0
ENDBLK
  5
597
330
58E
100
AcDbEntity
  8
0
100
AcDbBlockEnd
  0
BLOCK
  5
5A0
330
598
100
AcDbEntity
  8
0
100
AcDbBlockBegin
  2
GDIMGGROUP6
 70
     0
 10
0.0
 20
0.0
 30
0.0
  3
GDIMGGROUP6
  1

  0
POLYLINE
  5
59A
330
598
100
AcDbEntity
  8
DEFAULT
  6
CONTINUOUS
 62
   136
100
AcDb2dPolyline
 66
     1
 10
0.0
 20
0.0
 30
0.0
  0
VERTEX
  5
654
330
59A
100
AcDbEntity
  8
DEFAULT
  6
CONTINUOUS
 62
   136
100
AcDbVertex
100
AcDb2dVertex
 10
306.7356791933
 20
277.2161091487
 30
0.0
  0
VERTEX
  5
655
330
59A
100
AcDbEntity
  8
DEFAULT
  6
CONTINUOUS
 62
   136
100
AcDbVertex
100
AcDb2dVertex
 10
300.335679355
 20
278.2827757884
 30
0.0
  0
VERTEX
  5
656
330
59A
100
AcDbEntity
  8
DEFAULT
  6
CONTINUOUS
 62
   136
100
AcDbVertex
100
AcDb2dVertex
 10
306.7356791933
 20
279.3494424281
 30
0.0
  0
SEQEND
  5
657
330
59A
100
AcDbEntity
  8
DEFAULT
  6
CONTINUOUS
 62
   136
  0
POLYLINE
  5
59B
330
598
100
AcDbEntity
  8
DEFAULT
  6
CONTINUOUS
 62
   136
100
AcDb2dPolyline
 66
     1
 10
0.0
 20
0.0
 30
0.0
  0
VERTEX
  5
658
330
59B
100
AcDbEntity
  8
DEFAULT
  6
CONTINUOUS
 62
   136
100
AcDbVertex
100
AcDb2dVertex
 10
321.3076858436
 20
277.2161091487
 30
0.0
  0
VERTEX
  5
659
330
59B
100
AcDbEntity
  8
DEFAULT
  6
CONTINUOUS
 62
   136
100
AcDbVertex
100
AcDb2dVertex
 10
327.7076856819
 20
278.2827757884
 30
0.0
  0
VERTEX
  5
65A
330
59B
100
AcDbEntity
  8
DEFAULT
  6
CONTINUOUS
 62
   136
100
AcDbVertex
100
AcDb2dVertex
 10
321.3076858436
 20
279.3494424281
 30
0.0
  0
SEQEND
  5
65B
330
59B
100
AcDbEntity
  8
DEFAULT
  6
CONTINUOUS
 62
   136
  0
LINE
  5
59C
330
598
100
AcDbEntity
  8
DEFAULT
  6
CONTINUOUS
 62
   136
100
AcDbLine
 10
300.335679355
 20
66.8232131403
 30
0.0
 11
300.335679355
 21
281.4827757076
 31
0.0
  0
LINE
  5
59D
330
598
100
AcDbEntity
  8
DEFAULT
  6
CONTINUOUS
 62
   136
100
AcDbLine
 10
327.7076860838
 20
264.0693020861
 30
0.0
 11
327.7076860838
 21
281.4827757076
 31
0.0
  0
LINE
  5
59E
330
598
100
AcDbEntity
  8
DEFAULT
  6
CONTINUOUS
 62
   136
100
AcDbLine
 10
300.335679355
 20
278.2827757884
 30
0.0
 11
327.7076856819
 21
278.2827757884
 31
0.0
  0
TEXT
  5
59F
330
598
100
AcDbEntity
  8
DEFAULT
  6
CONTINUOUS
 62
   136
100
AcDbText
 10
303.6802191038
 20
279.8827757884
 30
0.0
 40
6.4
  1
273.7
  7
SEACAD_SEANSI_TTF
 11
303.6802191038
 21
286.2827757884
 31
0.0
100
AcDbText
 73
     3
  0
ENDBLK
  5
5A1
330
598
100
AcDbEntity
  8
0
100
AcDbBlockEnd
  0
ENDSEC
  0
SECTION
  2
ENTITIES
  0
TEXT
  5
5E
330
1F
100
AcDbEntity
  8
DEFAULT
  6
CONTINUOUS
 62
     7
100
AcDbText
 10
226.3889410291
 20
23.7521528516
 30
0.0
 40
6.35
  1
ディスプレイを中央に懸架した場合の寸法です。
  7
SEACAD_SEANSI_TTF
 11
226.3889410291
 21
30.1021528516
 31
0.0
100
AcDbText
 73
     3
  0
TEXT
  5
60
330
1F
100
AcDbEntity
  8
DEFAULT
  6
CONTINUOUS
 62
     7
100
AcDbText
 10
226.3889410291
 20
14.4594699248
 30
0.0
 40
6.35
  1
スタンドの組立状態や懸架の撓み等により、
  7
SEACAD_SEANSI_TTF
 11
226.3889410291
 21
20.8094699248
 31
0.0
100
AcDbText
 73
     3
  0
TEXT
  5
61
330
1F
100
AcDbEntity
  8
DEFAULT
  6
CONTINUOUS
 62
     7
100
AcDbText
 10
226.3889410291
 20
5.166786998
 30
0.0
 40
6.35
  1
1cm程度、図面寸法から変化します。
  7
SEACAD_SEANSI_TTF
 11
226.3889410291
 21
11.516786998
 31
0.0
100
AcDbText
 73
     3
  0
TEXT
  5
62
330
1F
100
AcDbEntity
  8
DEFAULT
  6
CONTINUOUS
 62
     7
100
AcDbText
 10
2.5799916499
 20
23.7521528516
 30
0.0
 40
6.35
  1
D8600 + Stand
  7
SEACAD_SEANSI_TTF
 11
2.5799916499
 21
30.1021528516
 31
0.0
100
AcDbText
 73
     3
  0
TEXT
  5
63
330
1F
100
AcDbEntity
  8
DEFAULT
  6
CONTINUOUS
 62
     7
100
AcDbText
 10
2.5799916499
 20
14.4594699248
 30
0.0
 40
6.35
  1
Display Center Height: 1450±100mm
  7
SEACAD_SEANSI_TTF
 11
2.5799916499
 21
20.8094699248
 31
0.0
100
AcDbText
 73
     3
  0
TEXT
  5
64
330
1F
100
AcDbEntity
  8
DEFAULT
  6
CONTINUOUS
 62
     7
100
AcDbText
 10
2.5799916499
 20
5.166786998
 30
0.0
 40
6.35
  1
(1350,1450,1550)
  7
SEACAD_SEANSI_TTF
 11
2.5799916499
 21
11.516786998
 31
0.0
100
AcDbText
 73
     3
  0
INSERT
  5
66
330
1F
100
AcDbEntity
  8
DEFAULT
100
AcDbBlockReference
  2
SE
 10
0.0
 20
0.0
 30
0.0
  0
INSERT
  5
343
330
1F
100
AcDbEntity
  8
DEFAULT
100
AcDbBlockReference
  2
SE1
 10
0.0
 20
0.0
 30
0.0
  0
INSERT
  5
55D
330
1F
100
AcDbEntity
  8
DEFAULT
100
AcDbBlockReference
  2
GDIMGGROUP
 10
0.0
 20
0.0
 30
0.0
  0
INSERT
  5
567
330
1F
100
AcDbEntity
  8
DEFAULT
100
AcDbBlockReference
  2
GDIMGGROUP1
 10
0.0
 20
0.0
 30
0.0
  0
INSERT
  5
571
330
1F
100
AcDbEntity
  8
DEFAULT
100
AcDbBlockReference
  2
GDIMGGROUP2
 10
0.0
 20
0.0
 30
0.0
  0
INSERT
  5
57B
330
1F
100
AcDbEntity
  8
DEFAULT
100
AcDbBlockReference
  2
GDIMGGROUP3
 10
0.0
 20
0.0
 30
0.0
  0
INSERT
  5
585
330
1F
100
AcDbEntity
  8
DEFAULT
100
AcDbBlockReference
  2
GDIMGGROUP4
 10
0.0
 20
0.0
 30
0.0
  0
INSERT
  5
58F
330
1F
100
AcDbEntity
  8
DEFAULT
100
AcDbBlockReference
  2
GDIMGGROUP5
 10
0.0
 20
0.0
 30
0.0
  0
INSERT
  5
599
330
1F
100
AcDbEntity
  8
DEFAULT
100
AcDbBlockReference
  2
GDIMGGROUP6
 10
0.0
 20
0.0
 30
0.0
  0
ENDSEC
  0
SECTION
  2
OBJECTS
  0
DICTIONARY
  5
C
330
0
100
AcDbDictionary
  3
ACAD_GROUP
350
D
  3
ACAD_LAYOUT
350
1A
  3
ACAD_MLEADERSTYLE
350
5A4
  3
ACAD_MLINESTYLE
350
17
  3
ACAD_PLOTSETTINGS
350
19
  3
ACAD_SCALELIST
350
3B
  3
ACAD_VISUALSTYLE
350
2A
  3
ACDBVARIABLEDICTIONARY
350
5A2
1001
ACAD
1000
TREAT_AS_HARD
1070
     0
  0
DICTIONARY
  5
D
102
{ACAD_REACTORS
330
C
102
}
330
C
100
AcDbDictionary
1001
ACAD
1000
TREAT_AS_HARD
1070
     0
  0
DICTIONARY
  5
1A
102
{ACAD_REACTORS
330
C
102
}
330
C
100
AcDbDictionary
1001
ACAD
1000
TREAT_AS_HARD
1070
     0
  0
DICTIONARY
  5
5A4
102
{ACAD_REACTORS
330
C
102
}
330
C
100
AcDbDictionary
1001
ACAD
1000
TREAT_AS_HARD
1070
     0
  0
DICTIONARY
  5
17
102
{ACAD_REACTORS
330
C
102
}
330
C
100
AcDbDictionary
  3
STANDARD
350
18
1001
ACAD
1000
TREAT_AS_HARD
1070
     0
  0
DICTIONARY
  5
19
102
{ACAD_REACTORS
330
C
102
}
330
C
100
AcDbDictionary
1001
ACAD
1000
TREAT_AS_HARD
1070
     0
  0
DICTIONARY
  5
3B
102
{ACAD_REACTORS
330
C
102
}
330
C
100
AcDbDictionary
  3
A0
350
3C
  3
A1
350
3D
  3
A2
350
3E
  3
A3
350
3F
  3
A4
350
40
  3
A5
350
41
  3
A6
350
42
  3
A7
350
43
  3
A8
350
44
  3
A9
350
45
  3
B0
350
46
  3
B1
350
47
  3
B2
350
48
  3
B3
350
49
  3
B4
350
4A
  3
B5
350
4B
  3
B6
350
4C
  3
B7
350
4D
  3
B8
350
4E
  3
B9
350
4F
  3
C0
350
50
  3
C1
350
51
  3
C2
350
52
  3
C3
350
53
  3
C4
350
54
  3
C5
350
55
  3
C6
350
56
  3
C7
350
57
  3
C8
350
58
  3
C9
350
59
  3
D0
350
5A
  3
D1
350
5B
  3
D2
350
5C
1001
ACAD
1000
TREAT_AS_HARD
1070
     0
  0
DICTIONARY
  5
2A
102
{ACAD_REACTORS
330
C
102
}
330
C
100
AcDbDictionary
  3
2DWIREFRAME
350
2F
  3
3D_HIDDEN
350
31
  3
3DWIREFRAME
350
30
  3
BASIC
350
32
  3
BRIGHTEN
350
36
  3
COLORCHANGE
350
3A
  3
CONCEPTUAL
350
34
  3
DIM
350
35
  3
FACEPATTERN
350
39
  3
FLAT
350
2B
  3
FLATWITHEDGES
350
2C
  3
GOURAUD
350
2D
  3
GOURAUDWITHEDGES
350
2E
  3
LINEPATTERN
350
38
  3
REALISTIC
350
33
  3
THICKEN
350
37
1001
ACAD
1000
TREAT_AS_HARD
1070
     0
  0
DICTIONARY
  5
5A2
102
{ACAD_REACTORS
330
C
102
}
330
C
100
AcDbDictionary
  3
CANNOSCALE
350
5A7
  3
PSOLHEIGHT
350
5A6
  3
PSOLWIDTH
350
5A5
1001
ACAD
1000
TREAT_AS_HARD
1070
     0
  0
MLINESTYLE
  5
18
102
{ACAD_REACTORS
330
17
102
}
330
17
100
AcDbMlineStyle
  2
Standard
 70
     0
  3

 62
   256
 51
90.0
 52
90.0
 71
     2
 49
0.5
 62
   256
  6
BYLAYER
 49
-0.5
 62
   256
  6
BYLAYER
  0
ACAD_PROXY_OBJECT
  5
3C
102
{ACAD_REACTORS
330
3B
102
}
330
3B
100
AcDbZombieObject
 90
      499
 91
      502
 93
       41
310
903313A31580
  0
ACAD_PROXY_OBJECT
  5
3D
102
{ACAD_REACTORS
330
3B
102
}
330
3B
100
AcDbZombieObject
 90
      499
 91
      502
 93
      105
310
903313A324000000000000004000
  0
ACAD_PROXY_OBJECT
  5
3E
102
{ACAD_REACTORS
330
3B
102
}
330
3B
100
AcDbZombieObject
 90
      499
 91
      502
 93
      105
310
903313A344000000000000104000
  0
ACAD_PROXY_OBJECT
  5
3F
102
{ACAD_REACTORS
330
3B
102
}
330
3B
100
AcDbZombieObject
 90
      499
 91
      502
 93
      105
310
903313A354000000000000144000
  0
ACAD_PROXY_OBJECT
  5
40
102
{ACAD_REACTORS
330
3B
102
}
330
3B
100
AcDbZombieObject
 90
      499
 91
      502
 93
      105
310
903313A384000000000000204000
  0
ACAD_PROXY_OBJECT
  5
41
102
{ACAD_REACTORS
330
3B
102
}
330
3B
100
AcDbZombieObject
 90
      499
 91
      502
 93
      113
310
904313A31304000000000000244000
  0
ACAD_PROXY_OBJECT
  5
42
102
{ACAD_REACTORS
330
3B
102
}
330
3B
100
AcDbZombieObject
 90
      499
 91
      502
 93
      113
310
904313A31364000000000000304000
  0
ACAD_PROXY_OBJECT
  5
43
102
{ACAD_REACTORS
330
3B
102
}
330
3B
100
AcDbZombieObject
 90
      499
 91
      502
 93
      113
310
904313A32304000000000000344000
  0
ACAD_PROXY_OBJECT
  5
44
102
{ACAD_REACTORS
330
3B
102
}
330
3B
100
AcDbZombieObject
 90
      499
 91
      502
 93
      113
310
904313A333040000000000003E4000
  0
ACAD_PROXY_OBJECT
  5
45
102
{ACAD_REACTORS
330
3B
102
}
330
3B
100
AcDbZombieObject
 90
      499
 91
      502
 93
      113
310
904313A34304000000000000444000
  0
ACAD_PROXY_OBJECT
  5
46
102
{ACAD_REACTORS
330
3B
102
}
330
3B
100
AcDbZombieObject
 90
      499
 91
      502
 93
      113
310
904313A35304000000000000494000
  0
ACAD_PROXY_OBJECT
  5
47
102
{ACAD_REACTORS
330
3B
102
}
330
3B
100
AcDbZombieObject
 90
      499
 91
      502
 93
      121
310
905313A3130304000000000000594000
  0
ACAD_PROXY_OBJECT
  5
48
102
{ACAD_REACTORS
330
3B
102
}
330
3B
100
AcDbZombieObject
 90
      499
 91
      502
 93
      105
310
903323A310000000000000010100
  0
ACAD_PROXY_OBJECT
  5
49
102
{ACAD_REACTORS
330
3B
102
}
330
3B
100
AcDbZombieObject
 90
      499
 91
      502
 93
      105
310
903343A310000000000000410100
  0
ACAD_PROXY_OBJECT
  5
4A
102
{ACAD_REACTORS
330
3B
102
}
330
3B
100
AcDbZombieObject
 90
      499
 91
      502
 93
      105
310
903383A310000000000000810100
  0
ACAD_PROXY_OBJECT
  5
4B
102
{ACAD_REACTORS
330
3B
102
}
330
3B
100
AcDbZombieObject
 90
      499
 91
      502
 93
      113
310
90431303A310000000000000910100
  0
ACAD_PROXY_OBJECT
  5
4C
102
{ACAD_REACTORS
330
3B
102
}
330
3B
100
AcDbZombieObject
 90
      499
 91
      502
 93
      121
310
9053130303A310000000000001650100
  0
ACAD_PROXY_OBJECT
  5
4D
102
{ACAD_REACTORS
330
3B
102
}
330
3B
100
AcDbZombieObject
 90
      499
 91
      502
 93
      257
310
90E312F31323822203D2031272D3022000000000000200FC000000000000284000
  0
ACAD_PROXY_OBJECT
  5
4E
102
{ACAD_REACTORS
330
3B
102
}
330
3B
100
AcDbZombieObject
 90
      499
 91
      502
 93
      249
310
90D312F363422203D2031272D3022000000000000240FC000000000000284000
  0
ACAD_PROXY_OBJECT
  5
4F
102
{ACAD_REACTORS
330
3B
102
}
330
3B
100
AcDbZombieObject
 90
      499
 91
      502
 93
      249
310
90D312F333222203D2031272D3022000000000000280FC000000000000284000
  0
ACAD_PROXY_OBJECT
  5
50
102
{ACAD_REACTORS
330
3B
102
}
330
3B
100
AcDbZombieObject
 90
      499
 91
      502
 93
      249
310
90D312F313622203D2031272D30220000000000002C0FC000000000000284000
  0
ACAD_PROXY_OBJECT
  5
51
102
{ACAD_REACTORS
330
3B
102
}
330
3B
100
AcDbZombieObject
 90
      499
 91
      502
 93
      249
310
90D332F333222203D2031272D30220000000000002E0FC000000000000284000
  0
ACAD_PROXY_OBJECT
  5
52
102
{ACAD_REACTORS
330
3B
102
}
330
3B
100
AcDbZombieObject
 90
      499
 91
      502
 93
      241
310
90C312F3822203D2031272D3022000000000000300FC000000000000284000
  0
ACAD_PROXY_OBJECT
  5
53
102
{ACAD_REACTORS
330
3B
102
}
330
3B
100
AcDbZombieObject
 90
      499
 91
      502
 93
      249
310
90D332F313622203D2031272D3022000000000000320FC000000000000284000
  0
ACAD_PROXY_OBJECT
  5
54
102
{ACAD_REACTORS
330
3B
102
}
330
3B
100
AcDbZombieObject
 90
      499
 91
      502
 93
      241
310
90C312F3422203D2031272D3022000000000000340FC000000000000284000
  0
ACAD_PROXY_OBJECT
  5
55
102
{ACAD_REACTORS
330
3B
102
}
330
3B
100
AcDbZombieObject
 90
      499
 91
      502
 93
      241
310
90C332F3822203D2031272D3022000000000000360FC000000000000284000
  0
ACAD_PROXY_OBJECT
  5
56
102
{ACAD_REACTORS
330
3B
102
}
330
3B
100
AcDbZombieObject
 90
      499
 91
      502
 93
      241
310
90C312F3222203D2031272D3022000000000000380FC000000000000284000
  0
ACAD_PROXY_OBJECT
  5
57
102
{ACAD_REACTORS
330
3B
102
}
330
3B
100
AcDbZombieObject
 90
      499
 91
      502
 93
      241
310
90C332F3422203D2031272D30220000000000003A0FC000000000000284000
  0
ACAD_PROXY_OBJECT
  5
58
102
{ACAD_REACTORS
330
3B
102
}
330
3B
100
AcDbZombieObject
 90
      499
 91
      502
 93
      161
310
90A3122203D2031272D30224000000000000284000
  0
ACAD_PROXY_OBJECT
  5
59
102
{ACAD_REACTORS
330
3B
102
}
330
3B
100
AcDbZombieObject
 90
      499
 91
      502
 93
      257
310
90E312D312F3222203D2031272D30220000000000003E0FC000000000000284000
  0
ACAD_PROXY_OBJECT
  5
5A
102
{ACAD_REACTORS
330
3B
102
}
330
3B
100
AcDbZombieObject
 90
      499
 91
      502
 93
      225
310
90A3322203D2031272D302200000000000002100000000000000284000
  0
ACAD_PROXY_OBJECT
  5
5B
102
{ACAD_REACTORS
330
3B
102
}
330
3B
100
AcDbZombieObject
 90
      499
 91
      502
 93
      225
310
90A3622203D2031272D302200000000000006100000000000000284000
  0
ACAD_PROXY_OBJECT
  5
5C
102
{ACAD_REACTORS
330
3B
102
}
330
3B
100
AcDbZombieObject
 90
      499
 91
      502
 93
      249
310
90D31272D3022203D2031272D30220000000000000A100000000000000284000
  0
ACAD_PROXY_OBJECT
  5
2F
102
{ACAD_REACTORS
330
2A
102
}
330
2A
100
AcDbZombieObject
 90
      499
 91
      501
 93
      436
310
42CC9915DA5C99599C985B595049028333333333333E3BF0000000000000FB0107901411070040501600405405064090741402480A0340
1001
ACAD
1000
AcDbSavedByObjectVersion
1070
     0
  0
ACAD_PROXY_OBJECT
  5
31
102
{ACAD_REACTORS
330
2A
102
}
330
2A
100
AcDbZombieObject
 90
      499
 91
      501
 93
      500
310
424CD108121A5919195B90640502408333333333333E3BF0000000000000FB01079024090700405020000000000001110200405405064090740C02480A0340
1001
ACAD
1000
AcDbSavedByObjectVersion
1070
     0
  0
ACAD_PROXY_OBJECT
  5
30
102
{ACAD_REACTORS
330
2A
102
}
330
2A
100
AcDbZombieObject
 90
      499
 91
      501
 93
      436
310
42CCD915DA5C99599C985B595059028333333333333E3BF0000000000000FB0107901411070040501600405405064090741402480A0340
1001
ACAD
1000
AcDbSavedByObjectVersion
1070
     0
  0
ACAD_PROXY_OBJECT
  5
32
102
{ACAD_REACTORS
330
2A
102
}
330
2A
100
AcDbZombieObject
 90
      499
 91
      501
 93
      388
310
4150985CDA58D07406404333333333333E3BF0000000000000FB0107A41107004050150841D405064090741402480A0350
1001
ACAD
1000
AcDbSavedByObjectVersion
1070
     0
  0
ACAD_PROXY_OBJECT
  5
36
102
{ACAD_REACTORS
330
2A
102
}
330
2A
100
AcDbZombieObject
 90
      499
 91
      501
 93
      428
310
42109C9A59DA1D195B90C409028333333333333E3BF0000000000000FB010790141107004050150841D405064090741402480A029950
1001
ACAD
1000
AcDbSavedByObjectVersion
1070
     0
  0
ACAD_PROXY_OBJECT
  5
3A
102
{ACAD_REACTORS
330
2A
102
}
330
2A
100
AcDbZombieObject
 90
      499
 91
      501
 93
      452
310
42D0DBDB1BDC90DA185B99D95104090240C333333333333E3BF0000000000000FB0108901411070040501508421405064090741402480A0350
1001
ACAD
1000
AcDbSavedByObjectVersion
1070
     0
  0
ACAD_PROXY_OBJECT
  5
34
102
{ACAD_REACTORS
330
2A
102
}
330
2A
100
AcDbZombieObject
 90
      499
 91
      501
 93
      500
310
4290DBDB98D95C1D1D585B10940D028333333333333E3BF0000000000000FB0107902409070040501000000000000111010841D405064090740C02480A0340
1001
ACAD
1000
AcDbSavedByObjectVersion
1070
     0
  0
ACAD_PROXY_OBJECT
  5
35
102
{ACAD_REACTORS
330
2A
102
}
330
2A
100
AcDbZombieObject
 90
      499
 91
      501
 93
      412
310
40D11A5B50B409028333333333333E3BF0000000000000FB010790141107004050150841D405064090741402480A02677FFFFFD0
1001
ACAD
1000
AcDbSavedByObjectVersion
1070
     0
  0
ACAD_PROXY_OBJECT
  5
39
102
{ACAD_REACTORS
330
2A
102
}
330
2A
100
AcDbZombieObject
 90
      499
 91
      501
 93
      444
310
42D19858D95C185D1D195C9B90F409028333333333333E3BF0000000000000FB010790141107004050150841D405064090741402480A0350
1001
ACAD
1000
AcDbSavedByObjectVersion
1070
     0
  0
ACAD_PROXY_OBJECT
  5
2B
102
{ACAD_REACTORS
330
2A
102
}
330
2A
100
AcDbZombieObject
 90
      499
 91
      501
 93
      388
310
41119B185D240901404333333333333E3BF0000000000000F9010740A41107004050150841D405064090741402480A1B50
1001
ACAD
1000
AcDbSavedByObjectVersion
1070
     0
  0
ACAD_PROXY_OBJECT
  5
2C
102
{ACAD_REACTORS
330
2A
102
}
330
2A
100
AcDbZombieObject
 90
      499
 91
      501
 93
      476
310
43519B185D15DA5D1A115919D95CD0140901404333333333333E3BF0000000000000F9010740901411070040501600405405064090741402480A1B50
1001
ACAD
1000
AcDbSavedByObjectVersion
1070
     0
  0
ACAD_PROXY_OBJECT
  5
2D
102
{ACAD_REACTORS
330
2A
102
}
330
2A
100
AcDbZombieObject
 90
      499
 91
      501
 93
      412
310
41D1DBDD5C985D5910240902404333333333333E3BF0000000000000F9010740A411070040501641D405064090741402480A1B50
1001
ACAD
1000
AcDbSavedByObjectVersion
1070
     0
  0
ACAD_PROXY_OBJECT
  5
2E
102
{ACAD_REACTORS
330
2A
102
}
330
2A
100
AcDbZombieObject
 90
      499
 91
      501
 93
      500
310
4411DBDD5C985D5915DA5D1A115919D95CD0340902404333333333333E3BF0000000000000F9010740901411070040501600405405064090741402480A1B50
1001
ACAD
1000
AcDbSavedByObjectVersion
1070
     0
  0
ACAD_PROXY_OBJECT
  5
38
102
{ACAD_REACTORS
330
2A
102
}
330
2A
100
AcDbZombieObject
 90
      499
 91
      501
 93
      444
310
42D31A5B995C185D1D195C9B90E409028333333333333E3BF0000000000000FB010790141107004050750841D405064090741402483A0350
1001
ACAD
1000
AcDbSavedByObjectVersion
1070
     0
  0
ACAD_PROXY_OBJECT
  5
33
102
{ACAD_REACTORS
330
2A
102
}
330
2A
100
AcDbZombieObject
 90
      499
 91
      501
 93
      420
310
425499585B1A5CDD1A58D08409028333333333333E3BF0000000000000FB01079019070040501508421405064090741402480A1B40
1001
ACAD
1000
AcDbSavedByObjectVersion
1070
     0
  0
ACAD_PROXY_OBJECT
  5
37
102
{ACAD_REACTORS
330
2A
102
}
330
2A
100
AcDbZombieObject
 90
      499
 91
      501
 93
      412
310
41D51A1A58DAD95B90D409028333333333333E3BF0000000000000FB010790141107004050150C41D405064090741402480A0350
1001
ACAD
1000
AcDbSavedByObjectVersion
1070
     0
  0
DICTIONARYVAR
  5
5A7
102
{ACAD_REACTORS
330
5A2
102
}
330
5A2
100
DictionaryVariables
280
     0
  1
1:1
  0
DICTIONARYVAR
  5
5A6
102
{ACAD_REACTORS
330
5A2
102
}
330
5A2
100
DictionaryVariables
280
     0
  1
80.000000
  0
DICTIONARYVAR
  5
5A5
102
{ACAD_REACTORS
330
5A2
102
}
330
5A2
100
DictionaryVariables
280
     0
  1
5.000000
  0
ENDSEC
  0
EOF
