  0
SECTION
  2
HEADER
  9
$ACADVER
  1
AC1012
  9
$DWGCODEPAGE
  3
ansi_932
  9
$INSBASE
 10
0.0
 20
0.0
 30
0.0
  9
$EXTMIN
 10
0.0
 20
0.0
 30
0.0
  9
$EXTMAX
 10
420.0
 20
297.0
 30
0.0
  9
$LIMMIN
 10
0.0
 20
0.0
  9
$LIMMAX
 10
420.0
 20
297.0
  9
$ORTHOMODE
 70
     0
  9
$REGENMODE
 70
     1
  9
$FILLMODE
 70
     1
  9
$QTEXTMODE
 70
     0
  9
$MIRRTEXT
 70
     1
  9
$DRAGMODE
 70
     2
  9
$LTSCALE
 40
1.0
  9
$OSMODE
 70
    37
  9
$ATTMODE
 70
     1
  9
$TEXTSIZE
 40
2.5
  9
$TRACEWID
 40
1.0
  9
$TEXTSTYLE
  7
STANDARD
  9
$CLAYER
  8
0
  9
$CELTYPE
  6
BYLAYER
  9
$CECOLOR
 62
   256
  9
$CELTSCALE
 40
1.0
  9
$DELOBJ
 70
     1
  9
$DISPSILH
 70
     0
  9
$DIMSCALE
 40
1.0
  9
$DIMASZ
 40
2.5
  9
$DIMEXO
 40
0.625
  9
$DIMDLI
 40
3.75
  9
$DIMRND
 40
0.0
  9
$DIMDLE
 40
0.0
  9
$DIMEXE
 40
1.25
  9
$DIMTP
 40
0.0
  9
$DIMTM
 40
0.0
  9
$DIMTXT
 40
2.5
  9
$DIMCEN
 40
2.5
  9
$DIMTSZ
 40
0.0
  9
$DIMTOL
 70
     0
  9
$DIMLIM
 70
     0
  9
$DIMTIH
 70
     0
  9
$DIMTOH
 70
     0
  9
$DIMSE1
 70
     0
  9
$DIMSE2
 70
     0
  9
$DIMTAD
 70
     1
  9
$DIMZIN
 70
     8
  9
$DIMBLK
  1

  9
$DIMASO
 70
     1
  9
$DIMSHO
 70
     1
  9
$DIMPOST
  1

  9
$DIMAPOST
  1

  9
$DIMALT
 70
     0
  9
$DIMALTD
 70
     3
  9
$DIMALTF
 40
0.0393700787
  9
$DIMLFAC
 40
1.0
  9
$DIMTOFL
 70
     1
  9
$DIMTVP
 40
0.0
  9
$DIMTIX
 70
     0
  9
$DIMSOXD
 70
     0
  9
$DIMSAH
 70
     0
  9
$DIMBLK1
  1

  9
$DIMBLK2
  1

  9
$DIMSTYLE
  2
ISO-25
  9
$DIMCLRD
 70
     0
  9
$DIMCLRE
 70
     0
  9
$DIMCLRT
 70
     0
  9
$DIMTFAC
 40
1.0
  9
$DIMGAP
 40
0.625
  9
$DIMJUST
 70
     0
  9
$DIMSD1
 70
     0
  9
$DIMSD2
 70
     0
  9
$DIMTOLJ
 70
     0
  9
$DIMTZIN
 70
     8
  9
$DIMALTZ
 70
     0
  9
$DIMALTTZ
 70
     0
  9
$DIMFIT
 70
     3
  9
$DIMUPT
 70
     0
  9
$DIMUNIT
 70
     2
  9
$DIMDEC
 70
     2
  9
$DIMTDEC
 70
     2
  9
$DIMALTU
 70
     2
  9
$DIMALTTD
 70
     3
  9
$DIMTXSTY
  7
STANDARD
  9
$DIMAUNIT
 70
     0
  9
$LUNITS
 70
     2
  9
$LUPREC
 70
     4
  9
$SKETCHINC
 40
1.0
  9
$FILLETRAD
 40
10.0
  9
$AUNITS
 70
     0
  9
$AUPREC
 70
     0
  9
$MENU
  1
.
  9
$ELEVATION
 40
0.0
  9
$PELEVATION
 40
0.0
  9
$THICKNESS
 40
0.0
  9
$LIMCHECK
 70
     0
  9
$CHAMFERA
 40
10.0
  9
$CHAMFERB
 40
10.0
  9
$CHAMFERC
 40
20.0
  9
$CHAMFERD
 40
0.0
  9
$SKPOLY
 70
     0
  9
$TDCREATE
 40
2458173.838705069
  9
$TDUPDATE
 40
2458173.838705081
  9
$TDINDWG
 40
0.0000000116
  9
$TDUSRTIMER
 40
0.0000000116
  9
$USRTIMER
 70
     1
  9
$ANGBASE
 50
0.0
  9
$ANGDIR
 70
     0
  9
$PDMODE
 70
     0
  9
$PDSIZE
 40
0.0
  9
$PLINEWID
 40
0.0
  9
$COORDS
 70
     1
  9
$SPLFRAME
 70
     0
  9
$SPLINETYPE
 70
     6
  9
$SPLINESEGS
 70
     8
  9
$ATTDIA
 70
     0
  9
$ATTREQ
 70
     1
  9
$HANDLING
 70
     1
  9
$HANDSEED
  5
62B
  9
$SURFTAB1
 70
     6
  9
$SURFTAB2
 70
     6
  9
$SURFTYPE
 70
     6
  9
$SURFU
 70
     6
  9
$SURFV
 70
     6
  9
$UCSNAME
  2

  9
$UCSORG
 10
0.0
 20
0.0
 30
0.0
  9
$UCSXDIR
 10
1.0
 20
0.0
 30
0.0
  9
$UCSYDIR
 10
0.0
 20
1.0
 30
0.0
  9
$PUCSNAME
  2

  9
$PUCSORG
 10
0.0
 20
0.0
 30
0.0
  9
$PUCSXDIR
 10
1.0
 20
0.0
 30
0.0
  9
$PUCSYDIR
 10
0.0
 20
1.0
 30
0.0
  9
$USERI1
 70
     0
  9
$USERI2
 70
     0
  9
$USERI3
 70
     0
  9
$USERI4
 70
     0
  9
$USERI5
 70
     0
  9
$USERR1
 40
0.0
  9
$USERR2
 40
0.0
  9
$USERR3
 40
0.0
  9
$USERR4
 40
0.0
  9
$USERR5
 40
0.0
  9
$WORLDVIEW
 70
     1
  9
$SHADEDGE
 70
     3
  9
$SHADEDIF
 70
    70
  9
$TILEMODE
 70
     1
  9
$MAXACTVP
 70
    64
  9
$PINSBASE
 10
0.0
 20
0.0
 30
0.0
  9
$PLIMCHECK
 70
     0
  9
$PEXTMIN
 10
0.0
 20
0.0
 30
0.0
  9
$PEXTMAX
 10
420.0
 20
297.0
 30
0.0
  9
$PLIMMIN
 10
0.0
 20
0.0
  9
$PLIMMAX
 10
420.0
 20
297.0
  9
$UNITMODE
 70
     0
  9
$VISRETAIN
 70
     1
  9
$PLINEGEN
 70
     0
  9
$PSLTSCALE
 70
     1
  9
$TREEDEPTH
 70
  3020
  9
$PICKSTYLE
 70
     1
  9
$CMLSTYLE
  2
STANDARD
  9
$CMLJUST
 70
     0
  9
$CMLSCALE
 40
20.0
  9
$SAVEIMAGES
 70
     1
  0
ENDSEC
  0
SECTION
  2
CLASSES
  0
CLASS
  1
ACDBDICTIONARYWDFLT
  2
AcDbDictionaryWithDefault
  3
ObjectDBX Classes
 90
    32768
280
     0
281
     0
  0
CLASS
  1
VISUALSTYLE
  2
AcDbVisualStyle
  3
ObjectDBX Classes
 90
     4095
280
     0
281
     0
  0
CLASS
  1
SCALE
  2
AcDbScale
  3
ObjectDBX Classes
 90
     1153
280
     0
281
     0
  0
CLASS
  1
DICTIONARYVAR
  2
AcDbDictionaryVar
  3
ObjectDBX Classes
 90
        0
280
     0
281
     0
  0
CLASS
  1
XRECORD
  2
AcDbXrecord
  3
AutoCAD 2000
 90
    32768
280
     0
281
     0
  0
CLASS
  1
LWPOLYLINE
  2
AcDbPolyline
  3
AutoCAD 2000
 90
    32768
280
     0
281
     1
  0
CLASS
  1
HATCH
  2
AcDbHatch
  3
AutoCAD 2000
 90
    32768
280
     0
281
     1
  0
CLASS
  1
ACDBPLACEHOLDER
  2
AcDbPlaceHolder
  3
ObjectDBX Classes
 90
        0
280
     0
281
     0
  0
CLASS
  1
LAYOUT
  2
AcDbLayout
  3
ObjectDBX Classes
 90
        0
280
     0
281
     0
  0
ENDSEC
  0
SECTION
  2
TABLES
  0
TABLE
  2
VPORT
  5
8
330
0
100
AcDbSymbolTable
 70
     1
  0
VPORT
  5
29
330
8
100
AcDbSymbolTableRecord
100
AcDbViewportTableRecord
  2
*ACTIVE
 70
     0
 10
0.0
 20
0.0
 11
1.0
 21
1.0
 12
344.1869158879
 22
148.5
 13
0.0
 23
0.0
 14
10.0
 24
10.0
 15
10.0
 25
10.0
 16
0.0
 26
0.0
 36
1.0
 17
0.0
 27
0.0
 37
0.0
 40
297.0
 41
1.9729729729
 42
50.0
 43
0.0
 44
0.0
 50
0.0
 51
0.0
 71
     0
 72
   100
 73
     1
 74
     3
 75
     0
 76
     0
 77
     0
 78
     0
  0
ENDTAB
  0
TABLE
  2
LTYPE
  5
5
330
0
100
AcDbSymbolTable
 70
     1
  0
LTYPE
  5
14
330
5
100
AcDbSymbolTableRecord
100
AcDbLinetypeTableRecord
  2
BYBLOCK
 70
     0
  3

 72
    65
 73
     0
 40
0.0
  0
LTYPE
  5
15
330
5
100
AcDbSymbolTableRecord
100
AcDbLinetypeTableRecord
  2
BYLAYER
 70
     0
  3

 72
    65
 73
     0
 40
0.0
  0
LTYPE
  5
16
330
5
100
AcDbSymbolTableRecord
100
AcDbLinetypeTableRecord
  2
CONTINUOUS
 70
     0
  3
Solid line
 72
    65
 73
     0
 40
0.0
  0
ENDTAB
  0
TABLE
  2
LAYER
  5
2
330
0
100
AcDbSymbolTable
 70
    43
  0
LAYER
  5
10
330
2
100
AcDbSymbolTableRecord
100
AcDbLayerTableRecord
  2
0
 70
     0
 62
     7
  6
CONTINUOUS
  0
LAYER
  5
3B
330
2
100
AcDbSymbolTableRecord
100
AcDbLayerTableRecord
  2
DEFAULT
 70
     0
 62
     7
  6
CONTINUOUS
  0
LAYER
  5
3E
330
2
100
AcDbSymbolTableRecord
100
AcDbLayerTableRecord
  2
ﾐﾗｰIWBブラケット16080
 70
     0
 62
     7
  6
CONTINUOUS
  0
LAYER
  5
4F
330
2
100
AcDbSymbolTableRecord
100
AcDbLayerTableRecord
  2
IWBブラケット160803_ﾃ
 70
     0
 62
     7
  6
CONTINUOUS
  0
LAYER
  5
60
330
2
100
AcDbSymbolTableRecord
100
AcDbLayerTableRecord
  2
ﾐﾗｰIWB固定金具160803
 70
     0
 62
     7
  6
CONTINUOUS
  0
LAYER
  5
6E
330
2
100
AcDbSymbolTableRecord
100
AcDbLayerTableRecord
  2
IWB受金具160803_ﾃﾞﾌ
 70
     0
 62
     7
  6
CONTINUOUS
  0
LAYER
  5
D3
330
2
100
AcDbSymbolTableRecord
100
AcDbLayerTableRecord
  2
IWB固定金具160803_ﾃﾞ
 70
     0
 62
     7
  6
CONTINUOUS
  0
LAYER
  5
E1
330
2
100
AcDbSymbolTableRecord
100
AcDbLayerTableRecord
  2
平座金_並形_110427_8_
 70
     0
 62
     7
  6
CONTINUOUS
  0
LAYER
  5
E4
330
2
100
AcDbSymbolTableRecord
100
AcDbLayerTableRecord
  2
バネ座金_2号_110427_呼
 70
     0
 62
     7
  6
CONTINUOUS
  0
LAYER
  5
E8
330
2
100
AcDbSymbolTableRecord
100
AcDbLayerTableRecord
  2
柔字穴付ナベ小ネジ110427_
 70
     0
 62
     7
  6
CONTINUOUS
  0
LAYER
  5
12E
330
2
100
AcDbSymbolTableRecord
100
AcDbLayerTableRecord
  2
ﾐﾗｰ棚板ブラケット150407
 70
     0
 62
     7
  6
CONTINUOUS
  0
LAYER
  5
142
330
2
100
AcDbSymbolTableRecord
100
AcDbLayerTableRecord
  2
製品デカル150204_座り_ぶ
 70
     0
 62
     7
  6
CONTINUOUS
  0
LAYER
  5
148
330
2
100
AcDbSymbolTableRecord
100
AcDbLayerTableRecord
  2
棚板ブラケット150407_ﾃﾞ
 70
     0
 62
     7
  6
CONTINUOUS
  0
LAYER
  5
15C
330
2
100
AcDbSymbolTableRecord
100
AcDbLayerTableRecord
  2
棚板本体160803_ﾃﾞﾌｫﾙ_竡_疎__退_
 70
     0
 62
     7
  6
CONTINUOUS
  0
LAYER
  5
179
330
2
100
AcDbSymbolTableRecord
100
AcDbLayerTableRecord
  2
支柱外160803_ﾃﾞﾌｫﾙﾄ
 70
     0
 62
     7
  6
CONTINUOUS
  0
LAYER
  5
184
330
2
100
AcDbSymbolTableRecord
100
AcDbLayerTableRecord
  2
ﾐﾗｰ支柱外160803_ﾃﾞﾌ
 70
     0
 62
     7
  6
CONTINUOUS
  0
LAYER
  5
18F
330
2
100
AcDbSymbolTableRecord
100
AcDbLayerTableRecord
  2
支柱カバー160803_ﾃﾞﾌｫ
 70
     0
 62
     7
  6
CONTINUOUS
  0
LAYER
  5
1AD
330
2
100
AcDbSymbolTableRecord
100
AcDbLayerTableRecord
  2
支柱上蓋150407_ﾃﾞﾌｫﾙ晗_____退_
 70
     0
 62
     7
  6
CONTINUOUS
  0
LAYER
  5
1B0
330
2
100
AcDbSymbolTableRecord
100
AcDbLayerTableRecord
  2
支柱連結パイプ160803_0
 70
     0
 62
     7
  6
CONTINUOUS
  0
LAYER
  5
1B8
330
2
100
AcDbSymbolTableRecord
100
AcDbLayerTableRecord
  2
ブラインドリベット150204_
 70
     0
 62
     7
  6
CONTINUOUS
  0
LAYER
  5
1C7
330
2
100
AcDbSymbolTableRecord
100
AcDbLayerTableRecord
  2
アジャスター_大昌H150_12
 70
     0
 62
     7
  6
CONTINUOUS
  0
LAYER
  5
23E
330
2
100
AcDbSymbolTableRecord
100
AcDbLayerTableRecord
  2
転点防止金具_前_160803_
 70
     0
 62
     7
  6
CONTINUOUS
  0
LAYER
  5
25C
330
2
100
AcDbSymbolTableRecord
100
AcDbLayerTableRecord
  2
回転軸140327_0
 70
     0
 62
     7
  6
CONTINUOUS
  0
LAYER
  5
269
330
2
100
AcDbSymbolTableRecord
100
AcDbLayerTableRecord
  2
スクリベット5102_10031
 70
     0
 62
     7
  6
CONTINUOUS
  0
LAYER
  5
2FA
330
2
100
AcDbSymbolTableRecord
100
AcDbLayerTableRecord
  2
ﾐﾗｰ支柱カバー160803_ﾃ_
 70
     0
 62
     7
  6
CONTINUOUS
  0
LAYER
  5
31A
330
2
100
AcDbSymbolTableRecord
100
AcDbLayerTableRecord
  2
ﾐﾗｰ支柱上蓋150407_ﾃﾞ
 70
     0
 62
     7
  6
CONTINUOUS
  0
LAYER
  5
31D
330
2
100
AcDbSymbolTableRecord
100
AcDbLayerTableRecord
  2
ﾐﾗｰ転点防止金具_前_1608
 70
     0
 62
     7
  6
CONTINUOUS
  0
LAYER
  5
33B
330
2
100
AcDbSymbolTableRecord
100
AcDbLayerTableRecord
  2
平座金_並形__6_13_1_0
 70
     0
 62
     7
  6
CONTINUOUS
  0
LAYER
  5
33F
330
2
100
AcDbSymbolTableRecord
100
AcDbLayerTableRecord
  2
バネ座金_2号__呼び_6_6_
 70
     0
 62
     7
  6
CONTINUOUS
  0
LAYER
  5
343
330
2
100
AcDbSymbolTableRecord
100
AcDbLayerTableRecord
  2
六角穴付キャップボルト_M6_1
 70
     0
 62
     7
  6
CONTINUOUS
  0
LAYER
  5
356
330
2
100
AcDbSymbolTableRecord
100
AcDbLayerTableRecord
  2
ベースパネル160803_ﾃﾞﾌ_
 70
     0
 62
     7
  6
CONTINUOUS
  0
LAYER
  5
35B
330
2
100
AcDbSymbolTableRecord
100
AcDbLayerTableRecord
  2
転点防止金具_後_160803_
 70
     0
 62
     7
  6
CONTINUOUS
  0
LAYER
  5
364
330
2
100
AcDbSymbolTableRecord
100
AcDbLayerTableRecord
  2
ﾐﾗｰ転点防止金具_後_1608
 70
     0
 62
     7
  6
CONTINUOUS
  0
LAYER
  5
369
330
2
100
AcDbSymbolTableRecord
100
AcDbLayerTableRecord
  2
TE100N_S__150205
 70
     0
 62
     7
  6
CONTINUOUS
  0
LAYER
  5
509
330
2
100
AcDbSymbolTableRecord
100
AcDbLayerTableRecord
  2
転点防止固定金具150407_0
 70
     0
 62
     7
  6
CONTINUOUS
  0
LAYER
  5
50F
330
2
100
AcDbSymbolTableRecord
100
AcDbLayerTableRecord
  2
平座金_並形__8_18_1_6
 70
     0
 62
     7
  6
CONTINUOUS
  0
LAYER
  5
513
330
2
100
AcDbSymbolTableRecord
100
AcDbLayerTableRecord
  2
Uナット130620_M8__0
 70
     0
 62
     7
  6
CONTINUOUS
  0
LAYER
  5
531
330
2
100
AcDbSymbolTableRecord
100
AcDbLayerTableRecord
  2
皿ばね110221_DB-8__
 70
     0
 62
     7
  6
CONTINUOUS
  0
LAYER
  5
537
330
2
100
AcDbSymbolTableRecord
100
AcDbLayerTableRecord
  2
六角穴付ボタンボルト110427
 70
     0
 62
     7
  6
CONTINUOUS
  0
LAYER
  5
542
330
2
100
AcDbSymbolTableRecord
100
AcDbLayerTableRecord
  2
製品デカル150204_ロゴ_商
 70
     0
 62
     7
  6
CONTINUOUS
  0
LAYER
  5
548
330
2
100
AcDbSymbolTableRecord
100
AcDbLayerTableRecord
  2
CC-0822-10_0
 70
     0
 62
     7
  6
CONTINUOUS
  0
LAYER
  5
599
330
2
100
AcDbSymbolTableRecord
100
AcDbLayerTableRecord
  2
ﾐﾗｰベースサイドカバー1608
 70
     0
 62
     7
  6
CONTINUOUS
  0
LAYER
  5
5AC
330
2
100
AcDbSymbolTableRecord
100
AcDbLayerTableRecord
  2
補強金具150407_ﾃﾞﾌｫﾙ
 70
     0
 62
     7
  6
CONTINUOUS
  0
ENDTAB
  0
TABLE
  2
STYLE
  5
3
330
0
100
AcDbSymbolTable
 70
     2
  0
STYLE
  5
11
330
3
100
AcDbSymbolTableRecord
100
AcDbTextStyleTableRecord
  2
STANDARD
 70
     0
 40
0.0
 41
1.0
 50
0.0
 71
     0
 42
2.5
  3
txt
  4

  0
STYLE
  5
5E3
330
3
100
AcDbSymbolTableRecord
100
AcDbTextStyleTableRecord
  2
SEACAD_SEANSI_TTF
 70
     0
 40
0.0
 41
1.0
 50
0.0
 71
     0
 42
0.2
  3
seansi.ttf
  4

  0
ENDTAB
  0
TABLE
  2
VIEW
  5
6
330
0
100
AcDbSymbolTable
 70
     0
  0
ENDTAB
  0
TABLE
  2
UCS
  5
7
330
0
100
AcDbSymbolTable
 70
     0
  0
ENDTAB
  0
TABLE
  2
APPID
  5
9
330
0
100
AcDbSymbolTable
 70
     1
  0
APPID
  5
12
330
9
100
AcDbSymbolTableRecord
100
AcDbRegAppTableRecord
  2
ACAD
 70
     0
  0
ENDTAB
  0
TABLE
  2
DIMSTYLE
  5
A
330
0
100
AcDbSymbolTable
 70
     1
  0
DIMSTYLE
105
27
330
A
100
AcDbSymbolTableRecord
100
AcDbDimStyleTableRecord
  2
ISO-25
 70
     0
  3

  4

  5

  6

  7

 40
1.0
 41
2.5
 42
0.625
 43
3.75
 44
1.25
 45
0.0
 46
0.0
 47
0.0
 48
0.0
140
2.5
141
2.5
142
0.0
143
0.0393700787
144
1.0
145
0.0
146
1.0
147
0.625
 71
     0
 72
     0
 73
     0
 74
     0
 75
     0
 76
     0
 77
     1
 78
     8
170
     0
171
     3
172
     1
173
     0
174
     0
175
     0
176
     0
177
     0
178
     0
270
     2
271
     2
272
     2
273
     2
274
     3
340
11
275
     0
280
     0
281
     0
282
     0
283
     0
284
     8
285
     0
286
     0
287
     3
288
     0
  0
ENDTAB
  0
TABLE
  2
BLOCK_RECORD
  5
1
330
0
100
AcDbSymbolTable
 70
     7
  0
BLOCK_RECORD
  5
1F
330
1
100
AcDbSymbolTableRecord
100
AcDbBlockTableRecord
  2
*MODEL_SPACE
  0
BLOCK_RECORD
  5
1B
330
1
100
AcDbSymbolTableRecord
100
AcDbBlockTableRecord
  2
*PAPER_SPACE
  0
BLOCK_RECORD
  5
3C
330
1
100
AcDbSymbolTableRecord
100
AcDbBlockTableRecord
  2
SE
  0
BLOCK_RECORD
  5
3D0
330
1
100
AcDbSymbolTableRecord
100
AcDbBlockTableRecord
  2
SE1
  0
BLOCK_RECORD
  5
5BA
330
1
100
AcDbSymbolTableRecord
100
AcDbBlockTableRecord
  2
GDIMGGROUP
  0
BLOCK_RECORD
  5
5E7
330
1
100
AcDbSymbolTableRecord
100
AcDbBlockTableRecord
  2
GDIMGGROUP1
  0
BLOCK_RECORD
  5
5F1
330
1
100
AcDbSymbolTableRecord
100
AcDbBlockTableRecord
  2
GDIMGGROUP2
  0
BLOCK_RECORD
  5
5FB
330
1
100
AcDbSymbolTableRecord
100
AcDbBlockTableRecord
  2
GDIMGGROUP3
  0
ENDTAB
  0
ENDSEC
  0
SECTION
  2
BLOCKS
  0
BLOCK
  5
20
330
1F
100
AcDbEntity
  8
0
100
AcDbBlockBegin
  2
*MODEL_SPACE
 70
     0
 10
0.0
 20
0.0
 30
0.0
  3
*MODEL_SPACE
  1

  0
ENDBLK
  5
21
330
1F
100
AcDbEntity
  8
0
100
AcDbBlockEnd
  0
BLOCK
  5
1C
330
1B
100
AcDbEntity
 67
     1
  8
0
100
AcDbBlockBegin
  2
*PAPER_SPACE
 70
     0
 10
0.0
 20
0.0
 30
0.0
  3
*PAPER_SPACE
  1

  0
ENDBLK
  5
1D
330
1B
100
AcDbEntity
 67
     1
  8
0
100
AcDbBlockEnd
  0
BLOCK
  5
3CE
330
3C
100
AcDbEntity
  8
0
100
AcDbBlockBegin
  2
SE
 70
     0
 10
0.0
 20
0.0
 30
0.0
  3
SE
  1

  0
LINE
  5
3F
330
3C
100
AcDbEntity
  8
ﾐﾗｰIWBブラケット16080
  6
CONTINUOUS
 62
     7
100
AcDbLine
 10
157.9793641289
 20
249.0570645155
 30
0.0
 11
157.9793641289
 21
201.0570645155
 31
0.0
  0
CIRCLE
  5
40
330
3C
100
AcDbEntity
  8
ﾐﾗｰIWBブラケット16080
  6
CONTINUOUS
 62
     7
100
AcDbCircle
 10
156.2293641289
 20
207.0570645155
 30
0.0
 40
0.425
  0
LINE
  5
41
330
3C
100
AcDbEntity
  8
ﾐﾗｰIWBブラケット16080
  6
CONTINUOUS
 62
     7
100
AcDbLine
 10
157.7493641289
 20
249.0570645155
 30
0.0
 11
154.7093641289
 21
249.0570645155
 31
0.0
  0
CIRCLE
  5
42
330
3C
100
AcDbEntity
  8
ﾐﾗｰIWBブラケット16080
  6
CONTINUOUS
 62
     7
100
AcDbCircle
 10
156.2293641289
 20
247.0570645155
 30
0.0
 40
0.425
  0
LINE
  5
43
330
3C
100
AcDbEntity
  8
ﾐﾗｰIWBブラケット16080
  6
CONTINUOUS
 62
     7
100
AcDbLine
 10
157.7493641289
 20
201.0570645155
 30
0.0
 11
154.7093641289
 21
201.0570645155
 31
0.0
  0
LINE
  5
44
330
3C
100
AcDbEntity
  8
ﾐﾗｰIWBブラケット16080
  6
CONTINUOUS
 62
     7
100
AcDbLine
 10
157.7493641289
 20
249.0570645155
 30
0.0
 11
157.9793641289
 21
249.0570645155
 31
0.0
  0
LINE
  5
45
330
3C
100
AcDbEntity
  8
ﾐﾗｰIWBブラケット16080
  6
CONTINUOUS
 62
     7
100
AcDbLine
 10
157.9793641289
 20
201.0570645155
 30
0.0
 11
157.7493641289
 21
201.0570645155
 31
0.0
  0
LINE
  5
46
330
3C
100
AcDbEntity
  8
ﾐﾗｰIWBブラケット16080
  6
CONTINUOUS
 62
     7
100
AcDbLine
 10
154.4793641289
 20
249.0570645155
 30
0.0
 11
154.4793641289
 21
201.0570645155
 31
0.0
  0
LINE
  5
47
330
3C
100
AcDbEntity
  8
ﾐﾗｰIWBブラケット16080
  6
CONTINUOUS
 62
     7
100
AcDbLine
 10
154.4793641289
 20
201.0570645155
 30
0.0
 11
154.7093641289
 21
201.0570645155
 31
0.0
  0
LINE
  5
48
330
3C
100
AcDbEntity
  8
ﾐﾗｰIWBブラケット16080
  6
CONTINUOUS
 62
     7
100
AcDbLine
 10
154.7093641289
 20
249.0570645155
 30
0.0
 11
154.4793641289
 21
249.0570645155
 31
0.0
  0
LINE
  5
49
330
3C
100
AcDbEntity
  8
ﾐﾗｰIWBブラケット16080
  6
CONTINUOUS
 62
     7
100
AcDbLine
 10
157.9793641289
 20
201.0570645155
 30
0.0
 11
159.7493641289
 21
201.0570645155
 31
0.0
  0
CIRCLE
  5
4A
330
3C
100
AcDbEntity
  8
ﾐﾗｰIWBブラケット16080
  6
CONTINUOUS
 62
     7
100
AcDbCircle
 10
159.2793641289
 20
203.0570645155
 30
0.0
 40
0.55
  0
LINE
  5
4B
330
3C
100
AcDbEntity
  8
ﾐﾗｰIWBブラケット16080
  6
CONTINUOUS
 62
     7
100
AcDbLine
 10
160.2493641289
 20
201.5570645155
 30
0.0
 11
160.2493641289
 21
214.0570645155
 31
0.0
  0
LINE
  5
4C
330
3C
100
AcDbEntity
  8
ﾐﾗｰIWBブラケット16080
  6
CONTINUOUS
 62
     7
100
AcDbLine
 10
159.7493641289
 20
214.5570645155
 30
0.0
 11
157.9793641289
 21
214.5570645155
 31
0.0
  0
ARC
  5
4D
330
3C
100
AcDbEntity
  8
ﾐﾗｰIWBブラケット16080
  6
CONTINUOUS
 62
     7
100
AcDbCircle
 10
159.7493641289
 20
214.0570645155
 30
0.0
 40
0.5000000000000117
100
AcDbArc
 50
0.0
 51
90.0
  0
ARC
  5
4E
330
3C
100
AcDbEntity
  8
ﾐﾗｰIWBブラケット16080
  6
CONTINUOUS
 62
     7
100
AcDbCircle
 10
159.7493641289
 20
201.5570645155
 30
0.0
 40
0.5000000000000004
100
AcDbArc
 50
270.0
 51
0.0
  0
LINE
  5
50
330
3C
100
AcDbEntity
  8
IWBブラケット160803_ﾃ
  6
CONTINUOUS
 62
     7
100
AcDbLine
 10
94.4793641289
 20
249.0570645155
 30
0.0
 11
94.4793641289
 21
201.0570645155
 31
0.0
  0
CIRCLE
  5
51
330
3C
100
AcDbEntity
  8
IWBブラケット160803_ﾃ
  6
CONTINUOUS
 62
     7
100
AcDbCircle
 10
96.2293641289
 20
207.0570645155
 30
0.0
 40
0.425
  0
LINE
  5
52
330
3C
100
AcDbEntity
  8
IWBブラケット160803_ﾃ
  6
CONTINUOUS
 62
     7
100
AcDbLine
 10
94.7093641289
 20
249.0570645155
 30
0.0
 11
97.7493641289
 21
249.0570645155
 31
0.0
  0
CIRCLE
  5
53
330
3C
100
AcDbEntity
  8
IWBブラケット160803_ﾃ
  6
CONTINUOUS
 62
     7
100
AcDbCircle
 10
96.2293641289
 20
247.0570645155
 30
0.0
 40
0.425
  0
LINE
  5
54
330
3C
100
AcDbEntity
  8
IWBブラケット160803_ﾃ
  6
CONTINUOUS
 62
     7
100
AcDbLine
 10
94.7093641289
 20
201.0570645155
 30
0.0
 11
97.7493641289
 21
201.0570645155
 31
0.0
  0
LINE
  5
55
330
3C
100
AcDbEntity
  8
IWBブラケット160803_ﾃ
  6
CONTINUOUS
 62
     7
100
AcDbLine
 10
94.7093641289
 20
249.0570645155
 30
0.0
 11
94.4793641289
 21
249.0570645155
 31
0.0
  0
LINE
  5
56
330
3C
100
AcDbEntity
  8
IWBブラケット160803_ﾃ
  6
CONTINUOUS
 62
     7
100
AcDbLine
 10
94.4793641289
 20
201.0570645155
 30
0.0
 11
94.7093641289
 21
201.0570645155
 31
0.0
  0
LINE
  5
57
330
3C
100
AcDbEntity
  8
IWBブラケット160803_ﾃ
  6
CONTINUOUS
 62
     7
100
AcDbLine
 10
97.9793641289
 20
249.0570645155
 30
0.0
 11
97.9793641289
 21
201.0570645155
 31
0.0
  0
LINE
  5
58
330
3C
100
AcDbEntity
  8
IWBブラケット160803_ﾃ
  6
CONTINUOUS
 62
     7
100
AcDbLine
 10
97.9793641289
 20
201.0570645155
 30
0.0
 11
97.7493641289
 21
201.0570645155
 31
0.0
  0
LINE
  5
59
330
3C
100
AcDbEntity
  8
IWBブラケット160803_ﾃ
  6
CONTINUOUS
 62
     7
100
AcDbLine
 10
97.7493641289
 20
249.0570645155
 30
0.0
 11
97.9793641289
 21
249.0570645155
 31
0.0
  0
LINE
  5
5A
330
3C
100
AcDbEntity
  8
IWBブラケット160803_ﾃ
  6
CONTINUOUS
 62
     7
100
AcDbLine
 10
94.4793641289
 20
201.0570645155
 30
0.0
 11
92.7093641289
 21
201.0570645155
 31
0.0
  0
CIRCLE
  5
5B
330
3C
100
AcDbEntity
  8
IWBブラケット160803_ﾃ
  6
CONTINUOUS
 62
     7
100
AcDbCircle
 10
93.1793641289
 20
203.0570645155
 30
0.0
 40
0.55
  0
LINE
  5
5C
330
3C
100
AcDbEntity
  8
IWBブラケット160803_ﾃ
  6
CONTINUOUS
 62
     7
100
AcDbLine
 10
92.2093641289
 20
201.5570645155
 30
0.0
 11
92.2093641289
 21
214.0570645155
 31
0.0
  0
LINE
  5
5D
330
3C
100
AcDbEntity
  8
IWBブラケット160803_ﾃ
  6
CONTINUOUS
 62
     7
100
AcDbLine
 10
92.7093641289
 20
214.5570645155
 30
0.0
 11
94.4793641289
 21
214.5570645155
 31
0.0
  0
ARC
  5
5E
330
3C
100
AcDbEntity
  8
IWBブラケット160803_ﾃ
  6
CONTINUOUS
 62
     7
100
AcDbCircle
 10
92.7093641289
 20
214.0570645155
 30
0.0
 40
0.5000000000000117
100
AcDbArc
 50
90.0
 51
180.0
  0
ARC
  5
5F
330
3C
100
AcDbEntity
  8
IWBブラケット160803_ﾃ
  6
CONTINUOUS
 62
     7
100
AcDbCircle
 10
92.7093641289
 20
201.5570645155
 30
0.0
 40
0.5000000000000004
100
AcDbArc
 50
180.0
 51
270.0
  0
ARC
  5
61
330
3C
100
AcDbEntity
  8
ﾐﾗｰIWB固定金具160803
  6
CONTINUOUS
 62
     7
100
AcDbCircle
 10
163.4993641289
 20
225.5570645155
 30
0.0
 40
0.5499999999999731
100
AcDbArc
 50
204.6199773287
 51
335.3800226713
  0
LINE
  5
62
330
3C
100
AcDbEntity
  8
ﾐﾗｰIWB固定金具160803
  6
CONTINUOUS
 62
     7
100
AcDbLine
 10
165.3993641289
 20
227.5570645155
 30
0.0
 11
165.4993641289
 21
227.5570645155
 31
0.0
  0
LINE
  5
63
330
3C
100
AcDbEntity
  8
ﾐﾗｰIWB固定金具160803
  6
CONTINUOUS
 62
     7
100
AcDbLine
 10
165.4993641289
 20
227.5570645155
 30
0.0
 11
165.4993641289
 21
195.5570645155
 31
0.0
  0
LINE
  5
64
330
3C
100
AcDbEntity
  8
ﾐﾗｰIWB固定金具160803
  6
CONTINUOUS
 62
     7
100
AcDbLine
 10
165.1793641289
 20
195.5570645155
 30
0.0
 11
165.4993641289
 21
195.5570645155
 31
0.0
  0
LINE
  5
65
330
3C
100
AcDbEntity
  8
ﾐﾗｰIWB固定金具160803
  6
CONTINUOUS
 62
     7
100
AcDbLine
 10
162.9993641289
 20
195.5570645155
 30
0.0
 11
165.1793641289
 21
195.5570645155
 31
0.0
  0
LINE
  5
66
330
3C
100
AcDbEntity
  8
ﾐﾗｰIWB固定金具160803
  6
CONTINUOUS
 62
     7
100
AcDbLine
 10
162.4993641289
 20
200.5570645155
 30
0.0
 11
162.4993641289
 21
196.0570645155
 31
0.0
  0
ARC
  5
67
330
3C
100
AcDbEntity
  8
ﾐﾗｰIWB固定金具160803
  6
CONTINUOUS
 62
     7
100
AcDbCircle
 10
162.9993641289
 20
196.0570645155
 30
0.0
 40
0.4999999999999894
100
AcDbArc
 50
180.0
 51
270.0
  0
LINE
  5
68
330
3C
100
AcDbEntity
  8
ﾐﾗｰIWB固定金具160803
  6
CONTINUOUS
 62
     7
100
AcDbLine
 10
165.1793641289
 20
192.0570645155
 30
0.0
 11
165.4993641289
 21
192.0570645155
 31
0.0
  0
LINE
  5
69
330
3C
100
AcDbEntity
  8
ﾐﾗｰIWB固定金具160803
  6
CONTINUOUS
 62
     7
100
AcDbLine
 10
165.1793641289
 20
192.3499577343
 30
0.0
 11
165.1793641289
 21
192.0570645155
 31
0.0
  0
LINE
  5
6A
330
3C
100
AcDbEntity
  8
ﾐﾗｰIWB固定金具160803
  6
CONTINUOUS
 62
     7
100
AcDbLine
 10
165.4993641289
 20
195.4984858717
 30
0.0
 11
165.4993641289
 21
192.3499577343
 31
0.0
  0
LINE
  5
6B
330
3C
100
AcDbEntity
  8
ﾐﾗｰIWB固定金具160803
  6
CONTINUOUS
 62
     7
100
AcDbLine
 10
165.1793641289
 20
195.4984858717
 30
0.0
 11
165.1793641289
 21
192.3499577343
 31
0.0
  0
LINE
  5
6C
330
3C
100
AcDbEntity
  8
ﾐﾗｰIWB固定金具160803
  6
CONTINUOUS
 62
     7
100
AcDbLine
 10
165.4993641289
 20
195.4984858717
 30
0.0
 11
165.4993641289
 21
195.5570645155
 31
0.0
  0
LINE
  5
6D
330
3C
100
AcDbEntity
  8
ﾐﾗｰIWB固定金具160803
  6
CONTINUOUS
 62
     7
100
AcDbLine
 10
165.1793641289
 20
195.5570645155
 30
0.0
 11
165.1793641289
 21
195.4984858717
 31
0.0
  0
LINE
  5
6F
330
3C
100
AcDbEntity
  8
IWB受金具160803_ﾃﾞﾌ
  6
CONTINUOUS
 62
     7
100
AcDbLine
 10
87.3593641289
 20
200.7570645155
 30
0.0
 11
87.3593641289
 21
200.7770645155
 31
0.0
  0
LINE
  5
70
330
3C
100
AcDbEntity
  8
IWB受金具160803_ﾃﾞﾌ
  6
CONTINUOUS
 62
     7
100
AcDbLine
 10
87.3593641289
 20
227.3370645155
 30
0.0
 11
87.3593641289
 21
227.3570645155
 31
0.0
  0
LINE
  5
71
330
3C
100
AcDbEntity
  8
IWB受金具160803_ﾃﾞﾌ
  6
CONTINUOUS
 62
     7
100
AcDbLine
 10
87.2593641289
 20
227.3370645155
 30
0.0
 11
87.3593641289
 21
227.3370645155
 31
0.0
  0
LINE
  5
72
330
3C
100
AcDbEntity
  8
IWB受金具160803_ﾃﾞﾌ
  6
CONTINUOUS
 62
     7
100
AcDbLine
 10
87.3593641289
 20
200.7770645155
 30
0.0
 11
87.2593641289
 21
200.7770645155
 31
0.0
  0
LINE
  5
73
330
3C
100
AcDbEntity
  8
IWB受金具160803_ﾃﾞﾌ
  6
CONTINUOUS
 62
     7
100
AcDbLine
 10
87.0593641289
 20
227.3570645155
 30
0.0
 11
94.4793641289
 21
227.3570645155
 31
0.0
  0
LINE
  5
74
330
3C
100
AcDbEntity
  8
IWB受金具160803_ﾃﾞﾌ
  6
CONTINUOUS
 62
     7
100
AcDbLine
 10
97.9793641289
 20
227.3570645155
 30
0.0
 11
154.4793641289
 21
227.3570645155
 31
0.0
  0
LINE
  5
75
330
3C
100
AcDbEntity
  8
IWB受金具160803_ﾃﾞﾌ
  6
CONTINUOUS
 62
     7
100
AcDbLine
 10
157.9793641289
 20
227.3570645155
 30
0.0
 11
165.3993641289
 21
227.3570645155
 31
0.0
  0
LINE
  5
76
330
3C
100
AcDbEntity
  8
IWB受金具160803_ﾃﾞﾌ
  6
CONTINUOUS
 62
     7
100
AcDbLine
 10
144.0793641289
 20
229.8570645155
 30
0.0
 11
108.3793641289
 21
229.8570645155
 31
0.0
  0
LINE
  5
77
330
3C
100
AcDbEntity
  8
IWB受金具160803_ﾃﾞﾌ
  6
CONTINUOUS
 62
     7
100
AcDbLine
 10
104.0793641289
 20
229.8570645155
 30
0.0
 11
98.3793641289
 21
229.8570645155
 31
0.0
  0
LINE
  5
78
330
3C
100
AcDbEntity
  8
IWB受金具160803_ﾃﾞﾌ
  6
CONTINUOUS
 62
     7
100
AcDbLine
 10
104.0793641289
 20
229.8570645155
 30
0.0
 11
104.3793641289
 21
229.5570645155
 31
0.0
  0
LINE
  5
79
330
3C
100
AcDbEntity
  8
IWB受金具160803_ﾃﾞﾌ
  6
CONTINUOUS
 62
     7
100
AcDbLine
 10
104.3793641289
 20
229.5570645155
 30
0.0
 11
108.0793641289
 21
229.5570645155
 31
0.0
  0
LINE
  5
7A
330
3C
100
AcDbEntity
  8
IWB受金具160803_ﾃﾞﾌ
  6
CONTINUOUS
 62
     7
100
AcDbLine
 10
108.0793641289
 20
229.5570645155
 30
0.0
 11
108.3793641289
 21
229.8570645155
 31
0.0
  0
LINE
  5
7B
330
3C
100
AcDbEntity
  8
IWB受金具160803_ﾃﾞﾌ
  6
CONTINUOUS
 62
     7
100
AcDbLine
 10
94.0793641289
 20
229.8570645155
 30
0.0
 11
87.5593641289
 21
229.8570645155
 31
0.0
  0
LINE
  5
7C
330
3C
100
AcDbEntity
  8
IWB受金具160803_ﾃﾞﾌ
  6
CONTINUOUS
 62
     7
100
AcDbLine
 10
94.0793641289
 20
229.8570645155
 30
0.0
 11
94.3793641289
 21
229.5570645155
 31
0.0
  0
LINE
  5
7D
330
3C
100
AcDbEntity
  8
IWB受金具160803_ﾃﾞﾌ
  6
CONTINUOUS
 62
     7
100
AcDbLine
 10
94.3793641289
 20
229.5570645155
 30
0.0
 11
94.4793641289
 21
229.5570645155
 31
0.0
  0
LINE
  5
7E
330
3C
100
AcDbEntity
  8
IWB受金具160803_ﾃﾞﾌ
  6
CONTINUOUS
 62
     7
100
AcDbLine
 10
97.9793641289
 20
229.5570645155
 30
0.0
 11
98.0793641289
 21
229.5570645155
 31
0.0
  0
LINE
  5
7F
330
3C
100
AcDbEntity
  8
IWB受金具160803_ﾃﾞﾌ
  6
CONTINUOUS
 62
     7
100
AcDbLine
 10
98.0793641289
 20
229.5570645155
 30
0.0
 11
98.3793641289
 21
229.8570645155
 31
0.0
  0
LINE
  5
80
330
3C
100
AcDbEntity
  8
IWB受金具160803_ﾃﾞﾌ
  6
CONTINUOUS
 62
     7
100
AcDbLine
 10
142.7293641289
 20
205.5570645155
 30
0.0
 11
109.7293641289
 21
205.5570645155
 31
0.0
  0
ARC
  5
81
330
3C
100
AcDbEntity
  8
IWB受金具160803_ﾃﾞﾌ
  6
CONTINUOUS
 62
     7
100
AcDbCircle
 10
92.6793641289
 20
203.0570645155
 30
0.0
 40
0.5000000000000117
100
AcDbArc
 50
160.0515564112
 51
199.9484435888
  0
LINE
  5
82
330
3C
100
AcDbEntity
  8
IWB受金具160803_ﾃﾞﾌ
  6
CONTINUOUS
 62
     7
100
AcDbLine
 10
92.9502353442
 20
202.5570645155
 30
0.0
 11
93.4084929137
 21
202.5570645155
 31
0.0
  0
LINE
  5
83
330
3C
100
AcDbEntity
  8
IWB受金具160803_ﾃﾞﾌ
  6
CONTINUOUS
 62
     7
100
AcDbLine
 10
93.4084929137
 20
203.5570645155
 30
0.0
 11
92.9502353442
 21
203.5570645155
 31
0.0
  0
ARC
  5
84
330
3C
100
AcDbEntity
  8
IWB受金具160803_ﾃﾞﾌ
  6
CONTINUOUS
 62
     7
100
AcDbCircle
 10
102.6793641289
 20
203.0570645155
 30
0.0
 40
0.5000000000000117
100
AcDbArc
 50
90.0
 51
270.0
  0
LINE
  5
85
330
3C
100
AcDbEntity
  8
IWB受金具160803_ﾃﾞﾌ
  6
CONTINUOUS
 62
     7
100
AcDbLine
 10
102.6793641289
 20
202.5570645155
 30
0.0
 11
103.6793641289
 21
202.5570645155
 31
0.0
  0
ARC
  5
86
330
3C
100
AcDbEntity
  8
IWB受金具160803_ﾃﾞﾌ
  6
CONTINUOUS
 62
     7
100
AcDbCircle
 10
103.6793641289
 20
203.0570645155
 30
0.0
 40
0.4999999999999894
100
AcDbArc
 50
270.0
 51
90.0
  0
LINE
  5
87
330
3C
100
AcDbEntity
  8
IWB受金具160803_ﾃﾞﾌ
  6
CONTINUOUS
 62
     7
100
AcDbLine
 10
103.6793641289
 20
203.5570645155
 30
0.0
 11
102.6793641289
 21
203.5570645155
 31
0.0
  0
LINE
  5
88
330
3C
100
AcDbEntity
  8
IWB受金具160803_ﾃﾞﾌ
  6
CONTINUOUS
 62
     7
100
AcDbLine
 10
87.0593641289
 20
227.3570645155
 30
0.0
 11
87.0593641289
 21
227.5570645155
 31
0.0
  0
LINE
  5
89
330
3C
100
AcDbEntity
  8
IWB受金具160803_ﾃﾞﾌ
  6
CONTINUOUS
 62
     7
100
AcDbLine
 10
87.0593641289
 20
227.5570645155
 30
0.0
 11
87.0593641289
 21
229.3570645155
 31
0.0
  0
ARC
  5
8A
330
3C
100
AcDbEntity
  8
IWB受金具160803_ﾃﾞﾌ
  6
CONTINUOUS
 62
     7
100
AcDbCircle
 10
88.9593641289
 20
225.4570645155
 30
0.0
 40
0.4999999999999949
100
AcDbArc
 50
0.0
 51
180.0
  0
LINE
  5
8B
330
3C
100
AcDbEntity
  8
IWB受金具160803_ﾃﾞﾌ
  6
CONTINUOUS
 62
     7
100
AcDbLine
 10
88.4593641289
 20
225.4570645155
 30
0.0
 11
88.4593641289
 21
224.8230899193
 31
0.0
  0
ARC
  5
8C
330
3C
100
AcDbEntity
  8
IWB受金具160803_ﾃﾞﾌ
  6
CONTINUOUS
 62
     7
100
AcDbCircle
 10
88.9593641289
 20
223.9570645155
 30
0.0
 40
1.000000000000004
100
AcDbArc
 50
120.0
 51
60.0
  0
LINE
  5
8D
330
3C
100
AcDbEntity
  8
IWB受金具160803_ﾃﾞﾌ
  6
CONTINUOUS
 62
     7
100
AcDbLine
 10
89.4593641289
 20
224.8230899193
 30
0.0
 11
89.4593641289
 21
225.4570645155
 31
0.0
  0
CIRCLE
  5
8E
330
3C
100
AcDbEntity
  8
IWB受金具160803_ﾃﾞﾌ
  6
CONTINUOUS
 62
     7
100
AcDbCircle
 10
88.9593641289
 20
203.0570645155
 30
0.0
 40
0.5
  0
ARC
  5
8F
330
3C
100
AcDbEntity
  8
IWB受金具160803_ﾃﾞﾌ
  6
CONTINUOUS
 62
     7
100
AcDbCircle
 10
88.8593641289
 20
228.5570645155
 30
0.0
 40
0.4000000000000004
100
AcDbArc
 50
90.0
 51
270.0
  0
LINE
  5
90
330
3C
100
AcDbEntity
  8
IWB受金具160803_ﾃﾞﾌ
  6
CONTINUOUS
 62
     7
100
AcDbLine
 10
88.8593641289
 20
228.1570645155
 30
0.0
 11
89.2593641289
 21
228.1570645155
 31
0.0
  0
ARC
  5
91
330
3C
100
AcDbEntity
  8
IWB受金具160803_ﾃﾞﾌ
  6
CONTINUOUS
 62
     7
100
AcDbCircle
 10
89.2593641289
 20
228.5570645155
 30
0.0
 40
0.4000000000000004
100
AcDbArc
 50
270.0
 51
90.0
  0
LINE
  5
92
330
3C
100
AcDbEntity
  8
IWB受金具160803_ﾃﾞﾌ
  6
CONTINUOUS
 62
     7
100
AcDbLine
 10
89.2593641289
 20
228.9570645155
 30
0.0
 11
88.8593641289
 21
228.9570645155
 31
0.0
  0
LINE
  5
93
330
3C
100
AcDbEntity
  8
IWB受金具160803_ﾃﾞﾌ
  6
CONTINUOUS
 62
     7
100
AcDbLine
 10
87.0593641289
 20
200.5570645155
 30
0.0
 11
87.0593641289
 21
200.7570645155
 31
0.0
  0
LINE
  5
94
330
3C
100
AcDbEntity
  8
IWB受金具160803_ﾃﾞﾌ
  6
CONTINUOUS
 62
     7
100
AcDbLine
 10
87.2593641289
 20
200.7570645155
 30
0.0
 11
165.1993641289
 21
200.7570645155
 31
0.0
  0
LINE
  5
95
330
3C
100
AcDbEntity
  8
IWB受金具160803_ﾃﾞﾌ
  6
CONTINUOUS
 62
     7
100
AcDbLine
 10
87.0593641289
 20
200.7570645155
 30
0.0
 11
87.2593641289
 21
200.7570645155
 31
0.0
  0
LINE
  5
96
330
3C
100
AcDbEntity
  8
IWB受金具160803_ﾃﾞﾌ
  6
CONTINUOUS
 62
     7
100
AcDbLine
 10
87.2593641289
 20
200.5570645155
 30
0.0
 11
165.1993641289
 21
200.5570645155
 31
0.0
  0
LINE
  5
97
330
3C
100
AcDbEntity
  8
IWB受金具160803_ﾃﾞﾌ
  6
CONTINUOUS
 62
     7
100
AcDbLine
 10
87.2593641289
 20
200.5570645155
 30
0.0
 11
87.0593641289
 21
200.5570645155
 31
0.0
  0
LINE
  5
98
330
3C
100
AcDbEntity
  8
IWB受金具160803_ﾃﾞﾌ
  6
CONTINUOUS
 62
     7
100
AcDbLine
 10
87.2593641289
 20
200.7770645155
 30
0.0
 11
87.0593641289
 21
200.7770645155
 31
0.0
  0
LINE
  5
99
330
3C
100
AcDbEntity
  8
IWB受金具160803_ﾃﾞﾌ
  6
CONTINUOUS
 62
     7
100
AcDbLine
 10
87.0593641289
 20
227.1370645155
 30
0.0
 11
87.0593641289
 21
200.9770645155
 31
0.0
  0
LINE
  5
9A
330
3C
100
AcDbEntity
  8
IWB受金具160803_ﾃﾞﾌ
  6
CONTINUOUS
 62
     7
100
AcDbLine
 10
87.0593641289
 20
227.1370645155
 30
0.0
 11
87.0593641289
 21
227.3370645155
 31
0.0
  0
LINE
  5
9B
330
3C
100
AcDbEntity
  8
IWB受金具160803_ﾃﾞﾌ
  6
CONTINUOUS
 62
     7
100
AcDbLine
 10
87.0593641289
 20
200.7770645155
 30
0.0
 11
87.0593641289
 21
200.9770645155
 31
0.0
  0
LINE
  5
9C
330
3C
100
AcDbEntity
  8
IWB受金具160803_ﾃﾞﾌ
  6
CONTINUOUS
 62
     7
100
AcDbLine
 10
87.2593641289
 20
227.1370645155
 30
0.0
 11
87.2593641289
 21
200.9770645155
 31
0.0
  0
LINE
  5
9D
330
3C
100
AcDbEntity
  8
IWB受金具160803_ﾃﾞﾌ
  6
CONTINUOUS
 62
     7
100
AcDbLine
 10
87.2593641289
 20
227.3370645155
 30
0.0
 11
87.2593641289
 21
227.1370645155
 31
0.0
  0
LINE
  5
9E
330
3C
100
AcDbEntity
  8
IWB受金具160803_ﾃﾞﾌ
  6
CONTINUOUS
 62
     7
100
AcDbLine
 10
87.2593641289
 20
200.9770645155
 30
0.0
 11
87.2593641289
 21
200.7770645155
 31
0.0
  0
LINE
  5
9F
330
3C
100
AcDbEntity
  8
IWB受金具160803_ﾃﾞﾌ
  6
CONTINUOUS
 62
     7
100
AcDbLine
 10
87.0593641289
 20
227.3370645155
 30
0.0
 11
87.2593641289
 21
227.3370645155
 31
0.0
  0
LINE
  5
A0
330
3C
100
AcDbEntity
  8
IWB受金具160803_ﾃﾞﾌ
  6
CONTINUOUS
 62
     7
100
AcDbLine
 10
109.7293641289
 20
222.5570645155
 30
0.0
 11
142.7293641289
 21
222.5570645155
 31
0.0
  0
LINE
  5
A1
330
3C
100
AcDbEntity
  8
IWB受金具160803_ﾃﾞﾌ
  6
CONTINUOUS
 62
     7
100
AcDbLine
 10
108.7293641289
 20
206.5570645155
 30
0.0
 11
108.7293641289
 21
221.5570645155
 31
0.0
  0
ARC
  5
A2
330
3C
100
AcDbEntity
  8
IWB受金具160803_ﾃﾞﾌ
  6
CONTINUOUS
 62
     7
100
AcDbCircle
 10
109.7293641289
 20
221.5570645155
 30
0.0
 40
0.9999999999999981
100
AcDbArc
 50
90.0
 51
180.0
  0
ARC
  5
A3
330
3C
100
AcDbEntity
  8
IWB受金具160803_ﾃﾞﾌ
  6
CONTINUOUS
 62
     7
100
AcDbCircle
 10
109.7293641289
 20
206.5570645155
 30
0.0
 40
1.000000000000001
100
AcDbArc
 50
180.0
 51
270.0
  0
ARC
  5
A4
330
3C
100
AcDbEntity
  8
IWB受金具160803_ﾃﾞﾌ
  6
CONTINUOUS
 62
     7
100
AcDbCircle
 10
87.5593641289
 20
229.3570645155
 30
0.0
 40
0.4999999999999894
100
AcDbArc
 50
90.0
 51
180.0
  0
LINE
  5
A5
330
3C
100
AcDbEntity
  8
IWB受金具160803_ﾃﾞﾌ
  6
CONTINUOUS
 62
     7
100
AcDbLine
 10
158.3793641289
 20
229.8570645155
 30
0.0
 11
158.0793641289
 21
229.5570645155
 31
0.0
  0
LINE
  5
A6
330
3C
100
AcDbEntity
  8
IWB受金具160803_ﾃﾞﾌ
  6
CONTINUOUS
 62
     7
100
AcDbLine
 10
158.0793641289
 20
229.5570645155
 30
0.0
 11
157.9793641289
 21
229.5570645155
 31
0.0
  0
LINE
  5
A7
330
3C
100
AcDbEntity
  8
IWB受金具160803_ﾃﾞﾌ
  6
CONTINUOUS
 62
     7
100
AcDbLine
 10
154.4793641289
 20
229.5570645155
 30
0.0
 11
154.3793641289
 21
229.5570645155
 31
0.0
  0
LINE
  5
A8
330
3C
100
AcDbEntity
  8
IWB受金具160803_ﾃﾞﾌ
  6
CONTINUOUS
 62
     7
100
AcDbLine
 10
154.3793641289
 20
229.5570645155
 30
0.0
 11
154.0793641289
 21
229.8570645155
 31
0.0
  0
LINE
  5
A9
330
3C
100
AcDbEntity
  8
IWB受金具160803_ﾃﾞﾌ
  6
CONTINUOUS
 62
     7
100
AcDbLine
 10
148.3793641289
 20
229.8570645155
 30
0.0
 11
148.0793641289
 21
229.5570645155
 31
0.0
  0
LINE
  5
AA
330
3C
100
AcDbEntity
  8
IWB受金具160803_ﾃﾞﾌ
  6
CONTINUOUS
 62
     7
100
AcDbLine
 10
148.0793641289
 20
229.5570645155
 30
0.0
 11
144.3793641289
 21
229.5570645155
 31
0.0
  0
LINE
  5
AB
330
3C
100
AcDbEntity
  8
IWB受金具160803_ﾃﾞﾌ
  6
CONTINUOUS
 62
     7
100
AcDbLine
 10
144.3793641289
 20
229.5570645155
 30
0.0
 11
144.0793641289
 21
229.8570645155
 31
0.0
  0
LINE
  5
AC
330
3C
100
AcDbEntity
  8
IWB受金具160803_ﾃﾞﾌ
  6
CONTINUOUS
 62
     7
100
AcDbLine
 10
165.3993641289
 20
227.5570645155
 30
0.0
 11
165.3993641289
 21
229.3570645155
 31
0.0
  0
ARC
  5
AD
330
3C
100
AcDbEntity
  8
IWB受金具160803_ﾃﾞﾌ
  6
CONTINUOUS
 62
     7
100
AcDbCircle
 10
163.5993641289
 20
228.5570645155
 30
0.0
 40
0.4000000000000004
100
AcDbArc
 50
270.0
 51
90.0
  0
LINE
  5
AE
330
3C
100
AcDbEntity
  8
IWB受金具160803_ﾃﾞﾌ
  6
CONTINUOUS
 62
     7
100
AcDbLine
 10
163.5993641289
 20
228.1570645155
 30
0.0
 11
163.1993641289
 21
228.1570645155
 31
0.0
  0
ARC
  5
AF
330
3C
100
AcDbEntity
  8
IWB受金具160803_ﾃﾞﾌ
  6
CONTINUOUS
 62
     7
100
AcDbCircle
 10
163.1993641289
 20
228.5570645155
 30
0.0
 40
0.4000000000000004
100
AcDbArc
 50
90.0
 51
270.0
  0
LINE
  5
B0
330
3C
100
AcDbEntity
  8
IWB受金具160803_ﾃﾞﾌ
  6
CONTINUOUS
 62
     7
100
AcDbLine
 10
163.1993641289
 20
228.9570645155
 30
0.0
 11
163.5993641289
 21
228.9570645155
 31
0.0
  0
CIRCLE
  5
B1
330
3C
100
AcDbEntity
  8
IWB受金具160803_ﾃﾞﾌ
  6
CONTINUOUS
 62
     7
100
AcDbCircle
 10
163.4993641289
 20
203.0570645155
 30
0.0
 40
0.5
  0
ARC
  5
B2
330
3C
100
AcDbEntity
  8
IWB受金具160803_ﾃﾞﾌ
  6
CONTINUOUS
 62
     7
100
AcDbCircle
 10
163.4993641289
 20
225.4570645155
 30
0.0
 40
0.4999999999999949
100
AcDbArc
 50
0.0
 51
180.0
  0
LINE
  5
B3
330
3C
100
AcDbEntity
  8
IWB受金具160803_ﾃﾞﾌ
  6
CONTINUOUS
 62
     7
100
AcDbLine
 10
163.9993641289
 20
225.4570645155
 30
0.0
 11
163.9993641289
 21
224.8230899193
 31
0.0
  0
ARC
  5
B4
330
3C
100
AcDbEntity
  8
IWB受金具160803_ﾃﾞﾌ
  6
CONTINUOUS
 62
     7
100
AcDbCircle
 10
163.4993641289
 20
223.9570645155
 30
0.0
 40
1.000000000000004
100
AcDbArc
 50
120.0
 51
60.0
  0
LINE
  5
B5
330
3C
100
AcDbEntity
  8
IWB受金具160803_ﾃﾞﾌ
  6
CONTINUOUS
 62
     7
100
AcDbLine
 10
162.9993641289
 20
224.8230899193
 30
0.0
 11
162.9993641289
 21
225.4570645155
 31
0.0
  0
ARC
  5
B6
330
3C
100
AcDbEntity
  8
IWB受金具160803_ﾃﾞﾌ
  6
CONTINUOUS
 62
     7
100
AcDbCircle
 10
159.7793641289
 20
203.0570645155
 30
0.0
 40
0.5000000000000117
100
AcDbArc
 50
340.0515564112
 51
19.9484435888
  0
LINE
  5
B7
330
3C
100
AcDbEntity
  8
IWB受金具160803_ﾃﾞﾌ
  6
CONTINUOUS
 62
     7
100
AcDbLine
 10
159.5084929137
 20
202.5570645155
 30
0.0
 11
159.0502353442
 21
202.5570645155
 31
0.0
  0
LINE
  5
B8
330
3C
100
AcDbEntity
  8
IWB受金具160803_ﾃﾞﾌ
  6
CONTINUOUS
 62
     7
100
AcDbLine
 10
159.0502353442
 20
203.5570645155
 30
0.0
 11
159.5084929137
 21
203.5570645155
 31
0.0
  0
LINE
  5
B9
330
3C
100
AcDbEntity
  8
IWB受金具160803_ﾃﾞﾌ
  6
CONTINUOUS
 62
     7
100
AcDbLine
 10
165.0993641289
 20
200.7570645155
 30
0.0
 11
165.0993641289
 21
200.7770645155
 31
0.0
  0
LINE
  5
BA
330
3C
100
AcDbEntity
  8
IWB受金具160803_ﾃﾞﾌ
  6
CONTINUOUS
 62
     7
100
AcDbLine
 10
165.0993641289
 20
200.7770645155
 30
0.0
 11
165.1993641289
 21
200.7770645155
 31
0.0
  0
LINE
  5
BB
330
3C
100
AcDbEntity
  8
IWB受金具160803_ﾃﾞﾌ
  6
CONTINUOUS
 62
     7
100
AcDbLine
 10
165.1993641289
 20
227.3370645155
 30
0.0
 11
165.0993641289
 21
227.3370645155
 31
0.0
  0
LINE
  5
BC
330
3C
100
AcDbEntity
  8
IWB受金具160803_ﾃﾞﾌ
  6
CONTINUOUS
 62
     7
100
AcDbLine
 10
165.0993641289
 20
227.3370645155
 30
0.0
 11
165.0993641289
 21
227.3570645155
 31
0.0
  0
ARC
  5
BD
330
3C
100
AcDbEntity
  8
IWB受金具160803_ﾃﾞﾌ
  6
CONTINUOUS
 62
     7
100
AcDbCircle
 10
149.7793641289
 20
203.0570645155
 30
0.0
 40
0.5000000000000117
100
AcDbArc
 50
270.0
 51
90.0
  0
LINE
  5
BE
330
3C
100
AcDbEntity
  8
IWB受金具160803_ﾃﾞﾌ
  6
CONTINUOUS
 62
     7
100
AcDbLine
 10
149.7793641289
 20
202.5570645155
 30
0.0
 11
148.7793641289
 21
202.5570645155
 31
0.0
  0
ARC
  5
BF
330
3C
100
AcDbEntity
  8
IWB受金具160803_ﾃﾞﾌ
  6
CONTINUOUS
 62
     7
100
AcDbCircle
 10
148.7793641289
 20
203.0570645155
 30
0.0
 40
0.4999999999999894
100
AcDbArc
 50
90.0
 51
270.0
  0
LINE
  5
C0
330
3C
100
AcDbEntity
  8
IWB受金具160803_ﾃﾞﾌ
  6
CONTINUOUS
 62
     7
100
AcDbLine
 10
148.7793641289
 20
203.5570645155
 30
0.0
 11
149.7793641289
 21
203.5570645155
 31
0.0
  0
LINE
  5
C1
330
3C
100
AcDbEntity
  8
IWB受金具160803_ﾃﾞﾌ
  6
CONTINUOUS
 62
     7
100
AcDbLine
 10
148.3793641289
 20
229.8570645155
 30
0.0
 11
154.0793641289
 21
229.8570645155
 31
0.0
  0
LINE
  5
C2
330
3C
100
AcDbEntity
  8
IWB受金具160803_ﾃﾞﾌ
  6
CONTINUOUS
 62
     7
100
AcDbLine
 10
158.3793641289
 20
229.8570645155
 30
0.0
 11
164.8993641289
 21
229.8570645155
 31
0.0
  0
LINE
  5
C3
330
3C
100
AcDbEntity
  8
IWB受金具160803_ﾃﾞﾌ
  6
CONTINUOUS
 62
     7
100
AcDbLine
 10
165.1993641289
 20
227.1370645155
 30
0.0
 11
165.1993641289
 21
200.9770645155
 31
0.0
  0
LINE
  5
C4
330
3C
100
AcDbEntity
  8
IWB受金具160803_ﾃﾞﾌ
  6
CONTINUOUS
 62
     7
100
AcDbLine
 10
165.3993641289
 20
227.1370645155
 30
0.0
 11
165.3993641289
 21
200.9770645155
 31
0.0
  0
LINE
  5
C5
330
3C
100
AcDbEntity
  8
IWB受金具160803_ﾃﾞﾌ
  6
CONTINUOUS
 62
     7
100
AcDbLine
 10
165.3993641289
 20
227.3570645155
 30
0.0
 11
165.3993641289
 21
227.5570645155
 31
0.0
  0
LINE
  5
C6
330
3C
100
AcDbEntity
  8
IWB受金具160803_ﾃﾞﾌ
  6
CONTINUOUS
 62
     7
100
AcDbLine
 10
143.7293641289
 20
206.5570645155
 30
0.0
 11
143.7293641289
 21
221.5570645155
 31
0.0
  0
LINE
  5
C7
330
3C
100
AcDbEntity
  8
IWB受金具160803_ﾃﾞﾌ
  6
CONTINUOUS
 62
     7
100
AcDbLine
 10
165.1993641289
 20
200.5570645155
 30
0.0
 11
165.3993641289
 21
200.5570645155
 31
0.0
  0
LINE
  5
C8
330
3C
100
AcDbEntity
  8
IWB受金具160803_ﾃﾞﾌ
  6
CONTINUOUS
 62
     7
100
AcDbLine
 10
165.3993641289
 20
200.5570645155
 30
0.0
 11
165.3993641289
 21
200.7570645155
 31
0.0
  0
LINE
  5
C9
330
3C
100
AcDbEntity
  8
IWB受金具160803_ﾃﾞﾌ
  6
CONTINUOUS
 62
     7
100
AcDbLine
 10
165.3993641289
 20
200.7570645155
 30
0.0
 11
165.1993641289
 21
200.7570645155
 31
0.0
  0
LINE
  5
CA
330
3C
100
AcDbEntity
  8
IWB受金具160803_ﾃﾞﾌ
  6
CONTINUOUS
 62
     7
100
AcDbLine
 10
165.1993641289
 20
200.9770645155
 30
0.0
 11
165.1993641289
 21
200.7770645155
 31
0.0
  0
LINE
  5
CB
330
3C
100
AcDbEntity
  8
IWB受金具160803_ﾃﾞﾌ
  6
CONTINUOUS
 62
     7
100
AcDbLine
 10
165.1993641289
 20
200.7770645155
 30
0.0
 11
165.3993641289
 21
200.7770645155
 31
0.0
  0
LINE
  5
CC
330
3C
100
AcDbEntity
  8
IWB受金具160803_ﾃﾞﾌ
  6
CONTINUOUS
 62
     7
100
AcDbLine
 10
165.3993641289
 20
200.7770645155
 30
0.0
 11
165.3993641289
 21
200.9770645155
 31
0.0
  0
LINE
  5
CD
330
3C
100
AcDbEntity
  8
IWB受金具160803_ﾃﾞﾌ
  6
CONTINUOUS
 62
     7
100
AcDbLine
 10
165.1993641289
 20
227.3370645155
 30
0.0
 11
165.1993641289
 21
227.1370645155
 31
0.0
  0
LINE
  5
CE
330
3C
100
AcDbEntity
  8
IWB受金具160803_ﾃﾞﾌ
  6
CONTINUOUS
 62
     7
100
AcDbLine
 10
165.3993641289
 20
227.1370645155
 30
0.0
 11
165.3993641289
 21
227.3370645155
 31
0.0
  0
LINE
  5
CF
330
3C
100
AcDbEntity
  8
IWB受金具160803_ﾃﾞﾌ
  6
CONTINUOUS
 62
     7
100
AcDbLine
 10
165.3993641289
 20
227.3370645155
 30
0.0
 11
165.1993641289
 21
227.3370645155
 31
0.0
  0
ARC
  5
D0
330
3C
100
AcDbEntity
  8
IWB受金具160803_ﾃﾞﾌ
  6
CONTINUOUS
 62
     7
100
AcDbCircle
 10
142.7293641289
 20
221.5570645155
 30
0.0
 40
0.9999999999999981
100
AcDbArc
 50
0.0
 51
90.0
  0
ARC
  5
D1
330
3C
100
AcDbEntity
  8
IWB受金具160803_ﾃﾞﾌ
  6
CONTINUOUS
 62
     7
100
AcDbCircle
 10
142.7293641289
 20
206.5570645155
 30
0.0
 40
1.000000000000001
100
AcDbArc
 50
270.0
 51
0.0
  0
ARC
  5
D2
330
3C
100
AcDbEntity
  8
IWB受金具160803_ﾃﾞﾌ
  6
CONTINUOUS
 62
     7
100
AcDbCircle
 10
164.8993641289
 20
229.3570645155
 30
0.0
 40
0.4999999999999894
100
AcDbArc
 50
0.0
 51
90.0
  0
ARC
  5
D4
330
3C
100
AcDbEntity
  8
IWB固定金具160803_ﾃﾞ
  6
CONTINUOUS
 62
     7
100
AcDbCircle
 10
88.9593641289
 20
225.5570645155
 30
0.0
 40
0.5499999999999731
100
AcDbArc
 50
204.6199773287
 51
335.3800226713
  0
LINE
  5
D5
330
3C
100
AcDbEntity
  8
IWB固定金具160803_ﾃﾞ
  6
CONTINUOUS
 62
     7
100
AcDbLine
 10
87.0593641289
 20
227.5570645155
 30
0.0
 11
86.9593641289
 21
227.5570645155
 31
0.0
  0
LINE
  5
D6
330
3C
100
AcDbEntity
  8
IWB固定金具160803_ﾃﾞ
  6
CONTINUOUS
 62
     7
100
AcDbLine
 10
86.9593641289
 20
227.5570645155
 30
0.0
 11
86.9593641289
 21
195.5570645155
 31
0.0
  0
LINE
  5
D7
330
3C
100
AcDbEntity
  8
IWB固定金具160803_ﾃﾞ
  6
CONTINUOUS
 62
     7
100
AcDbLine
 10
87.2793641289
 20
195.5570645155
 30
0.0
 11
86.9593641289
 21
195.5570645155
 31
0.0
  0
LINE
  5
D8
330
3C
100
AcDbEntity
  8
IWB固定金具160803_ﾃﾞ
  6
CONTINUOUS
 62
     7
100
AcDbLine
 10
89.4593641289
 20
195.5570645155
 30
0.0
 11
87.2793641289
 21
195.5570645155
 31
0.0
  0
LINE
  5
D9
330
3C
100
AcDbEntity
  8
IWB固定金具160803_ﾃﾞ
  6
CONTINUOUS
 62
     7
100
AcDbLine
 10
89.9593641289
 20
200.5570645155
 30
0.0
 11
89.9593641289
 21
196.0570645155
 31
0.0
  0
ARC
  5
DA
330
3C
100
AcDbEntity
  8
IWB固定金具160803_ﾃﾞ
  6
CONTINUOUS
 62
     7
100
AcDbCircle
 10
89.4593641289
 20
196.0570645155
 30
0.0
 40
0.4999999999999894
100
AcDbArc
 50
270.0
 51
0.0
  0
LINE
  5
DB
330
3C
100
AcDbEntity
  8
IWB固定金具160803_ﾃﾞ
  6
CONTINUOUS
 62
     7
100
AcDbLine
 10
87.2793641289
 20
192.0570645155
 30
0.0
 11
86.9593641289
 21
192.0570645155
 31
0.0
  0
LINE
  5
DC
330
3C
100
AcDbEntity
  8
IWB固定金具160803_ﾃﾞ
  6
CONTINUOUS
 62
     7
100
AcDbLine
 10
87.2793641289
 20
192.3499577343
 30
0.0
 11
87.2793641289
 21
192.0570645155
 31
0.0
  0
LINE
  5
DD
330
3C
100
AcDbEntity
  8
IWB固定金具160803_ﾃﾞ
  6
CONTINUOUS
 62
     7
100
AcDbLine
 10
86.9593641289
 20
195.4984858717
 30
0.0
 11
86.9593641289
 21
192.3499577343
 31
0.0
  0
LINE
  5
DE
330
3C
100
AcDbEntity
  8
IWB固定金具160803_ﾃﾞ
  6
CONTINUOUS
 62
     7
100
AcDbLine
 10
87.2793641289
 20
195.4984858717
 30
0.0
 11
87.2793641289
 21
192.3499577343
 31
0.0
  0
LINE
  5
DF
330
3C
100
AcDbEntity
  8
IWB固定金具160803_ﾃﾞ
  6
CONTINUOUS
 62
     7
100
AcDbLine
 10
86.9593641289
 20
195.4984858717
 30
0.0
 11
86.9593641289
 21
195.5570645155
 31
0.0
  0
LINE
  5
E0
330
3C
100
AcDbEntity
  8
IWB固定金具160803_ﾃﾞ
  6
CONTINUOUS
 62
     7
100
AcDbLine
 10
87.2793641289
 20
195.5570645155
 30
0.0
 11
87.2793641289
 21
195.4984858717
 31
0.0
  0
LINE
  5
E2
330
3C
100
AcDbEntity
  8
平座金_並形_110427_8_
  6
CONTINUOUS
 62
     7
100
AcDbLine
 10
165.0793641289
 20
137.1847882458
 30
0.0
 11
165.0793641289
 21
135.4347882458
 31
0.0
  0
LINE
  5
E3
330
3C
100
AcDbEntity
  8
平座金_並形_110427_8_
  6
CONTINUOUS
 62
     7
100
AcDbLine
 10
165.0793641289
 20
135.4347882458
 30
0.0
 11
165.2393641289
 21
135.4347882458
 31
0.0
  0
LINE
  5
E5
330
3C
100
AcDbEntity
  8
バネ座金_2号_110427_呼
  6
CONTINUOUS
 62
     7
100
AcDbLine
 10
164.8793641289
 20
135.565194197
 30
0.0
 11
164.8793641289
 21
137.1047882458
 31
0.0
  0
LINE
  5
E6
330
3C
100
AcDbEntity
  8
バネ座金_2号_110427_呼
  6
CONTINUOUS
 62
     7
100
AcDbLine
 10
165.0793641289
 20
135.565194197
 30
0.0
 11
164.8793641289
 21
135.565194197
 31
0.0
  0
LINE
  5
E7
330
3C
100
AcDbEntity
  8
バネ座金_2号_110427_呼
  6
CONTINUOUS
 62
     7
100
AcDbLine
 10
165.0793641289
 20
137.1047882458
 30
0.0
 11
164.8793641289
 21
137.1047882458
 31
0.0
  0
LINE
  5
E9
330
3C
100
AcDbEntity
  8
柔字穴付ナベ小ネジ110427_
  6
CONTINUOUS
 62
     7
100
AcDbLine
 10
164.3593641289
 20
136.2597882458
 30
0.0
 11
164.3593641289
 21
136.1711575641
 31
0.0
  0
LINE
  5
EA
330
3C
100
AcDbEntity
  8
柔字穴付ナベ小ネジ110427_
  6
CONTINUOUS
 62
     7
100
AcDbLine
 10
164.3593641289
 20
136.4984189275
 30
0.0
 11
164.3593641289
 21
136.4097882458
 31
0.0
  0
SPLINE
  5
EB
330
3C
100
AcDbEntity
  8
柔字穴付ナベ小ネジ110427_
  6
CONTINUOUS
 62
     7
100
AcDbSpline
210
0.0
220
0.0
230
1.0
 70
     8
 71
     3
 72
    10
 73
     6
 74
     0
 42
0.0000000665637782
 43
0.0000000001
 40
0.0
 40
0.0
 40
0.0
 40
0.0
 40
0.5
 40
0.5
 40
1.0
 40
1.0
 40
1.0
 40
1.0
 10
164.4068732985394
 20
136.2597882457925
 30
0.0
 10
164.4047064888095
 20
136.2847543739132
 30
0.0
 10
164.4036467424337
 20
136.309958922545
 30
0.0
 10
164.4036616014655
 20
136.3601407614148
 30
0.0
 10
164.4047266912829
 20
136.3850548919329
 30
0.0
 10
164.4068732985395
 20
136.4097882457912
 30
0.0
  0
LINE
  5
EC
330
3C
100
AcDbEntity
  8
柔字穴付ナベ小ネジ110427_
  6
CONTINUOUS
 62
     7
100
AcDbLine
 10
164.3593641289
 20
136.2597882458
 30
0.0
 11
164.4068732985
 21
136.2597882458
 31
0.0
  0
LINE
  5
ED
330
3C
100
AcDbEntity
  8
柔字穴付ナベ小ネジ110427_
  6
CONTINUOUS
 62
     7
100
AcDbLine
 10
164.4068732985
 20
136.4097882458
 30
0.0
 11
164.3593641289
 21
136.4097882458
 31
0.0
  0
SPLINE
  5
EE
330
3C
100
AcDbEntity
  8
柔字穴付ナベ小ネジ110427_
  6
CONTINUOUS
 62
     7
100
AcDbSpline
210
0.0
220
0.0
230
1.0
 70
     8
 71
     3
 72
    15
 73
    11
 74
     0
 42
0.0000000428529178
 43
0.0000000001
 40
0.0
 40
0.0
 40
0.0
 40
0.0
 40
0.5000000000000008
 40
0.5000000000000008
 40
0.5625000000000009
 40
0.5625000000000009
 40
0.625000000000001
 40
0.7500000000000006
 40
0.7500000000000006
 40
1.0
 40
1.0
 40
1.0
 40
1.0
 10
164.4068732985395
 20
135.9447882457912
 30
0.0
 10
164.3902618437613
 20
135.9815956120226
 30
0.0
 10
164.3780335738813
 20
136.0198933733996
 30
0.0
 10
164.3691206245496
 20
136.0646253894859
 30
0.0
 10
164.3682915504183
 20
136.0691207615372
 30
0.0
 10
164.3666992799634
 20
136.07837855323
 30
0.0
 10
164.3644945325218
 20
136.0922695414765
 30
0.0
 10
164.3628301826454
 20
136.1061731841608
 30
0.0
 10
164.3601940528533
 20
136.1339966873735
 30
0.0
 10
164.3593641289104
 20
136.1525674085981
 30
0.0
 10
164.3593641289104
 20
136.1711575640717
 30
0.0
  0
LINE
  5
EF
330
3C
100
AcDbEntity
  8
柔字穴付ナベ小ネジ110427_
  6
CONTINUOUS
 62
     7
100
AcDbLine
 10
164.4036541719
 20
135.9447882458
 30
0.0
 11
164.4068732985
 21
135.9447882458
 31
0.0
  0
LINE
  5
F0
330
3C
100
AcDbEntity
  8
柔字穴付ナベ小ネジ110427_
  6
CONTINUOUS
 62
     7
100
AcDbLine
 10
164.4036541719
 20
136.7247882458
 30
0.0
 11
164.4068732985
 21
136.7247882458
 31
0.0
  0
SPLINE
  5
F1
330
3C
100
AcDbEntity
  8
柔字穴付ナベ小ネジ110427_
  6
CONTINUOUS
 62
     7
100
AcDbSpline
210
0.0
220
0.0
230
1.0
 70
     8
 71
     3
 72
    12
 73
     8
 74
     0
 42
0.0000000428540101
 43
0.0000000001
 40
0.0
 40
0.0
 40
0.0
 40
0.0
 40
0.25
 40
0.25
 40
0.5
 40
0.5
 40
1.0
 40
1.0
 40
1.0
 40
1.0
 10
164.3593641289104
 20
136.4984189275108
 30
0.0
 10
164.3593641289104
 20
136.517827621469
 30
0.0
 10
164.3602689311344
 20
136.537237508445
 30
0.0
 10
164.3641229165103
 20
136.5760599779948
 30
0.0
 10
164.3671168714295
 20
136.595690734513
 30
0.0
 10
164.3790666495513
 20
136.6529287943242
 30
0.0
 10
164.3909929285154
 20
136.689600804163
 30
0.0
 10
164.4068732985394
 20
136.7247882457912
 30
0.0
  0
LINE
  5
F2
330
3C
100
AcDbEntity
  8
柔字穴付ナベ小ネジ110427_
  6
CONTINUOUS
 62
     7
100
AcDbLine
 10
165.4993641289
 20
136.7347882458
 30
0.0
 11
165.3993641289
 21
136.7347882458
 31
0.0
  0
LINE
  5
F3
330
3C
100
AcDbEntity
  8
柔字穴付ナベ小ネジ110427_
  6
CONTINUOUS
 62
     7
100
AcDbLine
 10
165.3993641289
 20
135.9347882458
 30
0.0
 11
165.4993641289
 21
135.9347882458
 31
0.0
  0
ARC
  5
F4
330
3C
100
AcDbEntity
  8
柔字穴付ナベ小ネジ110427_
  6
CONTINUOUS
 62
     7
100
AcDbCircle
 10
164.8793641289
 20
136.5147882458
 30
0.0
 40
0.5199999999999982
100
AcDbArc
 50
90.0
 51
156.2101225627
  0
ARC
  5
F5
330
3C
100
AcDbEntity
  8
柔字穴付ナベ小ネジ110427_
  6
CONTINUOUS
 62
     7
100
AcDbCircle
 10
164.8793641289
 20
136.1547882458
 30
0.0
 40
0.5199999999999991
100
AcDbArc
 50
203.808686538
 51
270.0
  0
LINE
  5
F6
330
3C
100
AcDbEntity
  8
平座金_並形_110427_8_
  6
CONTINUOUS
 62
     7
100
AcDbLine
 10
165.0793641289
 20
138.9847882458
 30
0.0
 11
165.0793641289
 21
137.1847882458
 31
0.0
  0
LINE
  5
F7
330
3C
100
AcDbEntity
  8
平座金_並形_110427_8_
  6
CONTINUOUS
 62
     7
100
AcDbLine
 10
165.2393641289
 20
138.9847882458
 30
0.0
 11
165.0793641289
 21
138.9847882458
 31
0.0
  0
LINE
  5
F8
330
3C
100
AcDbEntity
  8
平座金_並形_110427_8_
  6
CONTINUOUS
 62
     7
100
AcDbLine
 10
165.0793641289
 20
137.1847882458
 30
0.0
 11
165.2393641289
 21
137.1847882458
 31
0.0
  0
LINE
  5
F9
330
3C
100
AcDbEntity
  8
バネ座金_2号_110427_呼
  6
CONTINUOUS
 62
     7
100
AcDbLine
 10
164.8793641289
 20
137.315194197
 30
0.0
 11
164.8793641289
 21
138.8547882458
 31
0.0
  0
LINE
  5
FA
330
3C
100
AcDbEntity
  8
バネ座金_2号_110427_呼
  6
CONTINUOUS
 62
     7
100
AcDbLine
 10
165.0793641289
 20
137.315194197
 30
0.0
 11
164.8793641289
 21
137.315194197
 31
0.0
  0
LINE
  5
FB
330
3C
100
AcDbEntity
  8
バネ座金_2号_110427_呼
  6
CONTINUOUS
 62
     7
100
AcDbLine
 10
165.0793641289
 20
138.8547882458
 30
0.0
 11
164.8793641289
 21
138.8547882458
 31
0.0
  0
LINE
  5
FC
330
3C
100
AcDbEntity
  8
柔字穴付ナベ小ネジ110427_
  6
CONTINUOUS
 62
     7
100
AcDbLine
 10
164.3593641289
 20
138.0097882458
 30
0.0
 11
164.3593641289
 21
137.9211575641
 31
0.0
  0
LINE
  5
FD
330
3C
100
AcDbEntity
  8
柔字穴付ナベ小ネジ110427_
  6
CONTINUOUS
 62
     7
100
AcDbLine
 10
164.3593641289
 20
138.2484189275
 30
0.0
 11
164.3593641289
 21
138.1597882458
 31
0.0
  0
SPLINE
  5
FE
330
3C
100
AcDbEntity
  8
柔字穴付ナベ小ネジ110427_
  6
CONTINUOUS
 62
     7
100
AcDbSpline
210
0.0
220
0.0
230
1.0
 70
     8
 71
     3
 72
    10
 73
     6
 74
     0
 42
0.0000000665637782
 43
0.0000000001
 40
0.0
 40
0.0
 40
0.0
 40
0.0
 40
0.5
 40
0.5
 40
1.0
 40
1.0
 40
1.0
 40
1.0
 10
164.4068732985394
 20
138.0097882457925
 30
0.0
 10
164.4047064888095
 20
138.0347543739133
 30
0.0
 10
164.4036467424337
 20
138.0599589225451
 30
0.0
 10
164.4036616014655
 20
138.1101407614148
 30
0.0
 10
164.4047266912829
 20
138.1350548919329
 30
0.0
 10
164.4068732985395
 20
138.1597882457912
 30
0.0
  0
LINE
  5
FF
330
3C
100
AcDbEntity
  8
柔字穴付ナベ小ネジ110427_
  6
CONTINUOUS
 62
     7
100
AcDbLine
 10
164.3593641289
 20
138.0097882458
 30
0.0
 11
164.4068732985
 21
138.0097882458
 31
0.0
  0
LINE
  5
100
330
3C
100
AcDbEntity
  8
柔字穴付ナベ小ネジ110427_
  6
CONTINUOUS
 62
     7
100
AcDbLine
 10
164.4068732985
 20
138.1597882458
 30
0.0
 11
164.3593641289
 21
138.1597882458
 31
0.0
  0
SPLINE
  5
101
330
3C
100
AcDbEntity
  8
柔字穴付ナベ小ネジ110427_
  6
CONTINUOUS
 62
     7
100
AcDbSpline
210
0.0
220
0.0
230
1.0
 70
     8
 71
     3
 72
    15
 73
    11
 74
     0
 42
0.0000000428529178
 43
0.0000000001
 40
0.0
 40
0.0
 40
0.0
 40
0.0
 40
0.5000000000000008
 40
0.5000000000000008
 40
0.5625000000000009
 40
0.5625000000000009
 40
0.625000000000001
 40
0.7500000000000006
 40
0.7500000000000006
 40
1.0
 40
1.0
 40
1.0
 40
1.0
 10
164.4068732985395
 20
137.6947882457912
 30
0.0
 10
164.3902618437613
 20
137.7315956120226
 30
0.0
 10
164.3780335738813
 20
137.7698933733996
 30
0.0
 10
164.3691206245496
 20
137.8146253894859
 30
0.0
 10
164.3682915504183
 20
137.8191207615372
 30
0.0
 10
164.3666992799634
 20
137.82837855323
 30
0.0
 10
164.3644945325218
 20
137.8422695414765
 30
0.0
 10
164.3628301826454
 20
137.8561731841608
 30
0.0
 10
164.3601940528533
 20
137.8839966873735
 30
0.0
 10
164.3593641289104
 20
137.9025674085981
 30
0.0
 10
164.3593641289104
 20
137.9211575640717
 30
0.0
  0
LINE
  5
102
330
3C
100
AcDbEntity
  8
柔字穴付ナベ小ネジ110427_
  6
CONTINUOUS
 62
     7
100
AcDbLine
 10
164.4036541719
 20
137.6947882458
 30
0.0
 11
164.4068732985
 21
137.6947882458
 31
0.0
  0
LINE
  5
103
330
3C
100
AcDbEntity
  8
柔字穴付ナベ小ネジ110427_
  6
CONTINUOUS
 62
     7
100
AcDbLine
 10
164.4036541719
 20
138.4747882458
 30
0.0
 11
164.4068732985
 21
138.4747882458
 31
0.0
  0
SPLINE
  5
104
330
3C
100
AcDbEntity
  8
柔字穴付ナベ小ネジ110427_
  6
CONTINUOUS
 62
     7
100
AcDbSpline
210
0.0
220
0.0
230
1.0
 70
     8
 71
     3
 72
    12
 73
     8
 74
     0
 42
0.0000000428540101
 43
0.0000000001
 40
0.0
 40
0.0
 40
0.0
 40
0.0
 40
0.25
 40
0.25
 40
0.5
 40
0.5
 40
1.0
 40
1.0
 40
1.0
 40
1.0
 10
164.3593641289104
 20
138.2484189275108
 30
0.0
 10
164.3593641289104
 20
138.267827621469
 30
0.0
 10
164.3602689311344
 20
138.287237508445
 30
0.0
 10
164.3641229165103
 20
138.3260599779948
 30
0.0
 10
164.3671168714295
 20
138.345690734513
 30
0.0
 10
164.3790666495513
 20
138.4029287943242
 30
0.0
 10
164.3909929285154
 20
138.439600804163
 30
0.0
 10
164.4068732985394
 20
138.4747882457912
 30
0.0
  0
LINE
  5
105
330
3C
100
AcDbEntity
  8
柔字穴付ナベ小ネジ110427_
  6
CONTINUOUS
 62
     7
100
AcDbLine
 10
165.4993641289
 20
138.4847882458
 30
0.0
 11
165.3993641289
 21
138.4847882458
 31
0.0
  0
LINE
  5
106
330
3C
100
AcDbEntity
  8
柔字穴付ナベ小ネジ110427_
  6
CONTINUOUS
 62
     7
100
AcDbLine
 10
165.3993641289
 20
137.6847882458
 30
0.0
 11
165.4993641289
 21
137.6847882458
 31
0.0
  0
ARC
  5
107
330
3C
100
AcDbEntity
  8
柔字穴付ナベ小ネジ110427_
  6
CONTINUOUS
 62
     7
100
AcDbCircle
 10
164.8793641289
 20
138.2647882458
 30
0.0
 40
0.5199999999999982
100
AcDbArc
 50
90.0
 51
156.2101225627
  0
ARC
  5
108
330
3C
100
AcDbEntity
  8
柔字穴付ナベ小ネジ110427_
  6
CONTINUOUS
 62
     7
100
AcDbCircle
 10
164.8793641289
 20
137.9047882458
 30
0.0
 40
0.5199999999999968
100
AcDbArc
 50
203.808686538
 51
270.0
  0
LINE
  5
109
330
3C
100
AcDbEntity
  8
平座金_並形_110427_8_
  6
CONTINUOUS
 62
     7
100
AcDbLine
 10
87.3793641289
 20
137.1847882458
 30
0.0
 11
87.3793641289
 21
138.9847882458
 31
0.0
  0
LINE
  5
10A
330
3C
100
AcDbEntity
  8
平座金_並形_110427_8_
  6
CONTINUOUS
 62
     7
100
AcDbLine
 10
87.2193641289
 20
137.1847882458
 30
0.0
 11
87.3793641289
 21
137.1847882458
 31
0.0
  0
LINE
  5
10B
330
3C
100
AcDbEntity
  8
平座金_並形_110427_8_
  6
CONTINUOUS
 62
     7
100
AcDbLine
 10
87.3793641289
 20
138.9847882458
 30
0.0
 11
87.2193641289
 21
138.9847882458
 31
0.0
  0
LINE
  5
10C
330
3C
100
AcDbEntity
  8
バネ座金_2号_110427_呼
  6
CONTINUOUS
 62
     7
100
AcDbLine
 10
87.5793641289
 20
137.315194197
 30
0.0
 11
87.5793641289
 21
138.8547882458
 31
0.0
  0
LINE
  5
10D
330
3C
100
AcDbEntity
  8
バネ座金_2号_110427_呼
  6
CONTINUOUS
 62
     7
100
AcDbLine
 10
87.5793641289
 20
137.315194197
 30
0.0
 11
87.3793641289
 21
137.315194197
 31
0.0
  0
LINE
  5
10E
330
3C
100
AcDbEntity
  8
バネ座金_2号_110427_呼
  6
CONTINUOUS
 62
     7
100
AcDbLine
 10
87.5793641289
 20
138.8547882458
 30
0.0
 11
87.3793641289
 21
138.8547882458
 31
0.0
  0
LINE
  5
10F
330
3C
100
AcDbEntity
  8
柔字穴付ナベ小ネジ110427_
  6
CONTINUOUS
 62
     7
100
AcDbLine
 10
88.0993641289
 20
137.9211575641
 30
0.0
 11
88.0993641289
 21
138.0097882458
 31
0.0
  0
LINE
  5
110
330
3C
100
AcDbEntity
  8
柔字穴付ナベ小ネジ110427_
  6
CONTINUOUS
 62
     7
100
AcDbLine
 10
88.0993641289
 20
138.1597882458
 30
0.0
 11
88.0993641289
 21
138.2484189275
 31
0.0
  0
LINE
  5
111
330
3C
100
AcDbEntity
  8
柔字穴付ナベ小ネジ110427_
  6
CONTINUOUS
 62
     7
100
AcDbLine
 10
88.0550740859
 20
137.6947882458
 30
0.0
 11
88.0518549593
 21
137.6947882458
 31
0.0
  0
SPLINE
  5
112
330
3C
100
AcDbEntity
  8
柔字穴付ナベ小ネジ110427_
  6
CONTINUOUS
 62
     7
100
AcDbSpline
210
0.0
220
0.0
230
1.0
 70
     8
 71
     3
 72
    12
 73
     8
 74
     0
 42
0.0000000428540101
 43
0.0000000001
 40
0.0
 40
0.0
 40
0.0
 40
0.0
 40
0.25
 40
0.25
 40
0.5
 40
0.5
 40
1.0
 40
1.0
 40
1.0
 40
1.0
 10
88.09936412891045
 20
137.9211575640717
 30
0.0
 10
88.09936412891045
 20
137.9017488701134
 30
0.0
 10
88.09845932668647
 20
137.8823389831374
 30
0.0
 10
88.09460534131064
 20
137.8435165135876
 30
0.0
 10
88.0916113863914
 20
137.8238857570694
 30
0.0
 10
88.07966160826957
 20
137.7666476972582
 30
0.0
 10
88.06773532930553
 20
137.7299756874195
 30
0.0
 10
88.0518549592815
 20
137.6947882457912
 30
0.0
  0
LINE
  5
113
330
3C
100
AcDbEntity
  8
柔字穴付ナベ小ネジ110427_
  6
CONTINUOUS
 62
     7
100
AcDbLine
 10
88.0518549593
 20
138.0097882458
 30
0.0
 11
88.0993641289
 21
138.0097882458
 31
0.0
  0
SPLINE
  5
114
330
3C
100
AcDbEntity
  8
柔字穴付ナベ小ネジ110427_
  6
CONTINUOUS
 62
     7
100
AcDbSpline
210
0.0
220
0.0
230
1.0
 70
     8
 71
     3
 72
    10
 73
     6
 74
     0
 42
0.0000000665637782
 43
0.0000000001
 40
0.0
 40
0.0
 40
0.0
 40
0.0
 40
0.5
 40
0.5
 40
1.0
 40
1.0
 40
1.0
 40
1.0
 10
88.0518549592815
 20
138.1597882457912
 30
0.0
 10
88.05402176901131
 20
138.1348221176702
 30
0.0
 10
88.05508151538722
 20
138.1096175690382
 30
0.0
 10
88.05506665635538
 20
138.059435730168
 30
0.0
 10
88.054001566538
 20
138.0345215996497
 30
0.0
 10
88.0518549592814
 20
138.0097882457912
 30
0.0
  0
LINE
  5
115
330
3C
100
AcDbEntity
  8
柔字穴付ナベ小ネジ110427_
  6
CONTINUOUS
 62
     7
100
AcDbLine
 10
88.0993641289
 20
138.1597882458
 30
0.0
 11
88.0518549593
 21
138.1597882458
 31
0.0
  0
SPLINE
  5
116
330
3C
100
AcDbEntity
  8
柔字穴付ナベ小ネジ110427_
  6
CONTINUOUS
 62
     7
100
AcDbSpline
210
0.0
220
0.0
230
1.0
 70
     8
 71
     3
 72
    15
 73
    11
 74
     0
 42
0.0000000428529178
 43
0.0000000001
 40
0.0
 40
0.0
 40
0.0
 40
0.0
 40
0.499999999999999
 40
0.499999999999999
 40
0.5624999999999989
 40
0.5624999999999989
 40
0.6249999999999988
 40
0.7499999999999991
 40
0.7499999999999991
 40
1.0
 40
1.0
 40
1.0
 40
1.0
 10
88.0518549592814
 20
138.4747882457912
 30
0.0
 10
88.06846641405963
 20
138.4379808795598
 30
0.0
 10
88.08069468393964
 20
138.3996831181828
 30
0.0
 10
88.08960763327131
 20
138.3549511020965
 30
0.0
 10
88.09043670740257
 20
138.3504557300452
 30
0.0
 10
88.09202897785748
 20
138.3411979383524
 30
0.0
 10
88.09423372529905
 20
138.3273069501059
 30
0.0
 10
88.09589807517551
 20
138.3134033074217
 30
0.0
 10
88.0985342049676
 20
138.2855798042089
 30
0.0
 10
88.09936412891045
 20
138.2670090829844
 30
0.0
 10
88.09936412891045
 20
138.2484189275108
 30
0.0
  0
LINE
  5
117
330
3C
100
AcDbEntity
  8
柔字穴付ナベ小ネジ110427_
  6
CONTINUOUS
 62
     7
100
AcDbLine
 10
88.0550740859
 20
138.4747882458
 30
0.0
 11
88.0518549593
 21
138.4747882458
 31
0.0
  0
LINE
  5
118
330
3C
100
AcDbEntity
  8
柔字穴付ナベ小ネジ110427_
  6
CONTINUOUS
 62
     7
100
AcDbLine
 10
86.9593641289
 20
137.6847882458
 30
0.0
 11
87.0593641289
 21
137.6847882458
 31
0.0
  0
LINE
  5
119
330
3C
100
AcDbEntity
  8
柔字穴付ナベ小ネジ110427_
  6
CONTINUOUS
 62
     7
100
AcDbLine
 10
87.0593641289
 20
138.4847882458
 30
0.0
 11
86.9593641289
 21
138.4847882458
 31
0.0
  0
ARC
  5
11A
330
3C
100
AcDbEntity
  8
柔字穴付ナベ小ネジ110427_
  6
CONTINUOUS
 62
     7
100
AcDbCircle
 10
87.5793641289
 20
137.9047882458
 30
0.0
 40
0.5199999999999982
100
AcDbArc
 50
270.0
 51
336.2101225627
  0
ARC
  5
11B
330
3C
100
AcDbEntity
  8
柔字穴付ナベ小ネジ110427_
  6
CONTINUOUS
 62
     7
100
AcDbCircle
 10
87.5793641289
 20
138.2647882458
 30
0.0
 40
0.5199999999999968
100
AcDbArc
 50
23.808686538
 51
90.0
  0
LINE
  5
11C
330
3C
100
AcDbEntity
  8
平座金_並形_110427_8_
  6
CONTINUOUS
 62
     7
100
AcDbLine
 10
87.3793641289
 20
137.1847882458
 30
0.0
 11
87.3793641289
 21
135.4347882458
 31
0.0
  0
LINE
  5
11D
330
3C
100
AcDbEntity
  8
平座金_並形_110427_8_
  6
CONTINUOUS
 62
     7
100
AcDbLine
 10
87.2193641289
 20
135.4347882458
 30
0.0
 11
87.3793641289
 21
135.4347882458
 31
0.0
  0
LINE
  5
11E
330
3C
100
AcDbEntity
  8
バネ座金_2号_110427_呼
  6
CONTINUOUS
 62
     7
100
AcDbLine
 10
87.5793641289
 20
137.1047882458
 30
0.0
 11
87.5793641289
 21
135.5647882458
 31
0.0
  0
LINE
  5
11F
330
3C
100
AcDbEntity
  8
バネ座金_2号_110427_呼
  6
CONTINUOUS
 62
     7
100
AcDbLine
 10
87.3793641289
 20
135.5647882458
 30
0.0
 11
87.5793641289
 21
135.5647882458
 31
0.0
  0
LINE
  5
120
330
3C
100
AcDbEntity
  8
バネ座金_2号_110427_呼
  6
CONTINUOUS
 62
     7
100
AcDbLine
 10
87.5793641289
 20
137.1047882458
 30
0.0
 11
87.3793641289
 21
137.1047882458
 31
0.0
  0
LINE
  5
121
330
3C
100
AcDbEntity
  8
柔字穴付ナベ小ネジ110427_
  6
CONTINUOUS
 62
     7
100
AcDbLine
 10
88.0993641289
 20
136.1711575641
 30
0.0
 11
88.0993641289
 21
136.2597882458
 31
0.0
  0
LINE
  5
122
330
3C
100
AcDbEntity
  8
柔字穴付ナベ小ネジ110427_
  6
CONTINUOUS
 62
     7
100
AcDbLine
 10
88.0993641289
 20
136.4097882458
 30
0.0
 11
88.0993641289
 21
136.4984189275
 31
0.0
  0
LINE
  5
123
330
3C
100
AcDbEntity
  8
柔字穴付ナベ小ネジ110427_
  6
CONTINUOUS
 62
     7
100
AcDbLine
 10
88.0550740859
 20
136.7247882458
 30
0.0
 11
88.0518549593
 21
136.7247882458
 31
0.0
  0
SPLINE
  5
124
330
3C
100
AcDbEntity
  8
柔字穴付ナベ小ネジ110427_
  6
CONTINUOUS
 62
     7
100
AcDbSpline
210
0.0
220
0.0
230
1.0
 70
     8
 71
     3
 72
    15
 73
    11
 74
     0
 42
0.0000000428529178
 43
0.0000000001
 40
0.0
 40
0.0
 40
0.0
 40
0.0
 40
0.5000000000000008
 40
0.5000000000000008
 40
0.5625000000000009
 40
0.5625000000000009
 40
0.625000000000001
 40
0.7500000000000006
 40
0.7500000000000006
 40
1.0
 40
1.0
 40
1.0
 40
1.0
 10
88.0518549592814
 20
136.7247882457912
 30
0.0
 10
88.06846641405963
 20
136.6879808795598
 30
0.0
 10
88.08069468393964
 20
136.6496831181828
 30
0.0
 10
88.08960763327131
 20
136.6049511020965
 30
0.0
 10
88.09043670740257
 20
136.6004557300452
 30
0.0
 10
88.09202897785748
 20
136.5911979383524
 30
0.0
 10
88.09423372529905
 20
136.5773069501059
 30
0.0
 10
88.09589807517551
 20
136.5634033074216
 30
0.0
 10
88.0985342049676
 20
136.5355798042089
 30
0.0
 10
88.09936412891045
 20
136.5170090829844
 30
0.0
 10
88.09936412891045
 20
136.4984189275108
 30
0.0
  0
LINE
  5
125
330
3C
100
AcDbEntity
  8
柔字穴付ナベ小ネジ110427_
  6
CONTINUOUS
 62
     7
100
AcDbLine
 10
88.0550740859
 20
135.9447882458
 30
0.0
 11
88.0518549593
 21
135.9447882458
 31
0.0
  0
SPLINE
  5
126
330
3C
100
AcDbEntity
  8
柔字穴付ナベ小ネジ110427_
  6
CONTINUOUS
 62
     7
100
AcDbSpline
210
0.0
220
0.0
230
1.0
 70
     8
 71
     3
 72
    12
 73
     8
 74
     0
 42
0.0000000428540101
 43
0.0000000001
 40
0.0
 40
0.0
 40
0.0
 40
0.0
 40
0.2499999999999999
 40
0.2499999999999999
 40
0.4999999999999999
 40
0.4999999999999999
 40
1.0
 40
1.0
 40
1.0
 40
1.0
 10
88.09936412891045
 20
136.1711575640717
 30
0.0
 10
88.09936412891045
 20
136.1517488701134
 30
0.0
 10
88.09845932668647
 20
136.1323389831374
 30
0.0
 10
88.09460534131064
 20
136.0935165135876
 30
0.0
 10
88.0916113863914
 20
136.0738857570694
 30
0.0
 10
88.07966160826957
 20
136.0166476972582
 30
0.0
 10
88.06773532930553
 20
135.9799756874194
 30
0.0
 10
88.0518549592815
 20
135.9447882457912
 30
0.0
  0
LINE
  5
127
330
3C
100
AcDbEntity
  8
柔字穴付ナベ小ネジ110427_
  6
CONTINUOUS
 62
     7
100
AcDbLine
 10
88.0518549593
 20
136.2597882458
 30
0.0
 11
88.0993641289
 21
136.2597882458
 31
0.0
  0
SPLINE
  5
128
330
3C
100
AcDbEntity
  8
柔字穴付ナベ小ネジ110427_
  6
CONTINUOUS
 62
     7
100
AcDbSpline
210
0.0
220
0.0
230
1.0
 70
     8
 71
     3
 72
    10
 73
     6
 74
     0
 42
0.0000000665637782
 43
0.0000000001
 40
0.0
 40
0.0
 40
0.0
 40
0.0
 40
0.5
 40
0.5
 40
1.0
 40
1.0
 40
1.0
 40
1.0
 10
88.0518549592815
 20
136.4097882457912
 30
0.0
 10
88.05402176901131
 20
136.3848221176702
 30
0.0
 10
88.05508151538722
 20
136.3596175690382
 30
0.0
 10
88.05506665635538
 20
136.309435730168
 30
0.0
 10
88.054001566538
 20
136.2845215996497
 30
0.0
 10
88.0518549592814
 20
136.2597882457912
 30
0.0
  0
LINE
  5
129
330
3C
100
AcDbEntity
  8
柔字穴付ナベ小ネジ110427_
  6
CONTINUOUS
 62
     7
100
AcDbLine
 10
88.0993641289
 20
136.4097882458
 30
0.0
 11
88.0518549593
 21
136.4097882458
 31
0.0
  0
LINE
  5
12A
330
3C
100
AcDbEntity
  8
柔字穴付ナベ小ネジ110427_
  6
CONTINUOUS
 62
     7
100
AcDbLine
 10
86.9593641289
 20
135.9347882458
 30
0.0
 11
87.0593641289
 21
135.9347882458
 31
0.0
  0
LINE
  5
12B
330
3C
100
AcDbEntity
  8
柔字穴付ナベ小ネジ110427_
  6
CONTINUOUS
 62
     7
100
AcDbLine
 10
87.0593641289
 20
136.7347882458
 30
0.0
 11
86.9593641289
 21
136.7347882458
 31
0.0
  0
ARC
  5
12C
330
3C
100
AcDbEntity
  8
柔字穴付ナベ小ネジ110427_
  6
CONTINUOUS
 62
     7
100
AcDbCircle
 10
87.5793641289
 20
136.1547882458
 30
0.0
 40
0.5199999999999982
100
AcDbArc
 50
270.0
 51
336.2101225627
  0
ARC
  5
12D
330
3C
100
AcDbEntity
  8
柔字穴付ナベ小ネジ110427_
  6
CONTINUOUS
 62
     7
100
AcDbCircle
 10
87.5793641289
 20
136.5147882458
 30
0.0
 40
0.5199999999999991
100
AcDbArc
 50
23.808686538
 51
90.0
  0
LINE
  5
12F
330
3C
100
AcDbEntity
  8
ﾐﾗｰ棚板ブラケット150407
  6
CONTINUOUS
 62
     7
100
AcDbLine
 10
164.4993641289
 20
140.0847882458
 30
0.0
 11
164.4993641289
 21
139.9047882458
 31
0.0
  0
LINE
  5
130
330
3C
100
AcDbEntity
  8
ﾐﾗｰ棚板ブラケット150407
  6
CONTINUOUS
 62
     7
100
AcDbLine
 10
164.3393641289
 20
139.9047882458
 30
0.0
 11
164.3393641289
 21
133.7486592135
 31
0.0
  0
LINE
  5
131
330
3C
100
AcDbEntity
  8
ﾐﾗｰ棚板ブラケット150407
  6
CONTINUOUS
 62
     7
100
AcDbLine
 10
164.3393641289
 20
140.0847882458
 30
0.0
 11
164.3393641289
 21
139.9047882458
 31
0.0
  0
LINE
  5
132
330
3C
100
AcDbEntity
  8
ﾐﾗｰ棚板ブラケット150407
  6
CONTINUOUS
 62
     7
100
AcDbLine
 10
165.2393641289
 20
139.9047882458
 30
0.0
 11
165.2318130994
 21
139.9047882458
 31
0.0
  0
LINE
  5
133
330
3C
100
AcDbEntity
  8
ﾐﾗｰ棚板ブラケット150407
  6
CONTINUOUS
 62
     7
100
AcDbLine
 10
164.3862270439
 20
139.9047882458
 30
0.0
 11
165.2318130994
 21
139.9047882458
 31
0.0
  0
LINE
  5
134
330
3C
100
AcDbEntity
  8
ﾐﾗｰ棚板ブラケット150407
  6
CONTINUOUS
 62
     7
100
AcDbLine
 10
165.2318130994
 20
139.9047882458
 30
0.0
 11
165.2318130994
 21
138.9847882458
 31
0.0
  0
LINE
  5
135
330
3C
100
AcDbEntity
  8
ﾐﾗｰ棚板ブラケット150407
  6
CONTINUOUS
 62
     7
100
AcDbLine
 10
165.2318130994
 20
135.4347882458
 30
0.0
 11
165.2318130994
 21
133.5195326695
 31
0.0
  0
LINE
  5
136
330
3C
100
AcDbEntity
  8
ﾐﾗｰ棚板ブラケット150407
  6
CONTINUOUS
 62
     7
100
AcDbLine
 10
165.2318130994
 20
133.5195326695
 30
0.0
 11
164.3862270439
 21
133.7486592135
 31
0.0
  0
ELLIPSE
  5
137
330
3C
100
AcDbEntity
  8
ﾐﾗｰ棚板ブラケット150407
  6
CONTINUOUS
 62
     7
100
AcDbEllipse
 10
165.2393641289
 20
133.5174865841
 30
0.0
 11
0.01067697089628395
 21
-0.001473101238647079
 31
0.0
210
0.0
220
0.0
230
1.0
 40
0.1329977828
 41
1.589143966350716
 42
2.374542129740542
  0
LINE
  5
138
330
3C
100
AcDbEntity
  8
ﾐﾗｰ棚板ブラケット150407
  6
CONTINUOUS
 62
     7
100
AcDbLine
 10
164.3393641289
 20
133.7486592135
 30
0.0
 11
164.3862270439
 21
133.7486592135
 31
0.0
  0
LINE
  5
139
330
3C
100
AcDbEntity
  8
ﾐﾗｰ棚板ブラケット150407
  6
CONTINUOUS
 62
     7
100
AcDbLine
 10
164.3862270439
 20
139.9047882458
 30
0.0
 11
164.3393641289
 21
139.9047882458
 31
0.0
  0
LINE
  5
13A
330
3C
100
AcDbEntity
  8
ﾐﾗｰ棚板ブラケット150407
  6
CONTINUOUS
 62
     7
100
AcDbLine
 10
165.2393641289
 20
133.5047882458
 30
0.0
 11
165.3993641289
 21
133.5047882458
 31
0.0
  0
LINE
  5
13B
330
3C
100
AcDbEntity
  8
ﾐﾗｰ棚板ブラケット150407
  6
CONTINUOUS
 62
     7
100
AcDbLine
 10
165.3993641289
 20
139.4047882458
 30
0.0
 11
165.3993641289
 21
134.0047882458
 31
0.0
  0
LINE
  5
13C
330
3C
100
AcDbEntity
  8
ﾐﾗｰ棚板ブラケット150407
  6
CONTINUOUS
 62
     7
100
AcDbLine
 10
165.3993641289
 20
139.4047882458
 30
0.0
 11
165.3993641289
 21
139.9047882458
 31
0.0
  0
LINE
  5
13D
330
3C
100
AcDbEntity
  8
ﾐﾗｰ棚板ブラケット150407
  6
CONTINUOUS
 62
     7
100
AcDbLine
 10
165.3993641289
 20
133.5047882458
 30
0.0
 11
165.3993641289
 21
134.0047882458
 31
0.0
  0
LINE
  5
13E
330
3C
100
AcDbEntity
  8
ﾐﾗｰ棚板ブラケット150407
  6
CONTINUOUS
 62
     7
100
AcDbLine
 10
165.2393641289
 20
139.4047882458
 30
0.0
 11
165.2393641289
 21
134.0047882458
 31
0.0
  0
LINE
  5
13F
330
3C
100
AcDbEntity
  8
ﾐﾗｰ棚板ブラケット150407
  6
CONTINUOUS
 62
     7
100
AcDbLine
 10
165.2393641289
 20
139.9047882458
 30
0.0
 11
165.2393641289
 21
139.4047882458
 31
0.0
  0
LINE
  5
140
330
3C
100
AcDbEntity
  8
ﾐﾗｰ棚板ブラケット150407
  6
CONTINUOUS
 62
     7
100
AcDbLine
 10
165.2393641289
 20
134.0047882458
 30
0.0
 11
165.2393641289
 21
133.5047882458
 31
0.0
  0
LINE
  5
141
330
3C
100
AcDbEntity
  8
ﾐﾗｰ棚板ブラケット150407
  6
CONTINUOUS
 62
     7
100
AcDbLine
 10
165.3993641289
 20
139.9047882458
 30
0.0
 11
165.2393641289
 21
139.9047882458
 31
0.0
  0
LINE
  5
143
330
3C
100
AcDbEntity
  8
製品デカル150204_座り_ぶ
  6
CONTINUOUS
 62
     7
100
AcDbLine
 10
159.4993641289
 20
142.1047882458
 30
0.0
 11
164.0993641289
 21
142.1047882458
 31
0.0
  0
LINE
  5
144
330
3C
100
AcDbEntity
  8
製品デカル150204_座り_ぶ
  6
CONTINUOUS
 62
     7
100
AcDbLine
 10
159.2993641289
 20
142.0847882458
 30
0.0
 11
159.2993641289
 21
142.1047882458
 31
0.0
  0
LINE
  5
145
330
3C
100
AcDbEntity
  8
製品デカル150204_座り_ぶ
  6
CONTINUOUS
 62
     7
100
AcDbLine
 10
164.0993641289
 20
142.1047882458
 30
0.0
 11
164.2993641289
 21
142.1047882458
 31
0.0
  0
LINE
  5
146
330
3C
100
AcDbEntity
  8
製品デカル150204_座り_ぶ
  6
CONTINUOUS
 62
     7
100
AcDbLine
 10
159.2993641289
 20
142.1047882458
 30
0.0
 11
159.4993641289
 21
142.1047882458
 31
0.0
  0
LINE
  5
147
330
3C
100
AcDbEntity
  8
製品デカル150204_座り_ぶ
  6
CONTINUOUS
 62
     7
100
AcDbLine
 10
164.2993641289
 20
142.1047882458
 30
0.0
 11
164.2993641289
 21
142.0847882458
 31
0.0
  0
LINE
  5
149
330
3C
100
AcDbEntity
  8
棚板ブラケット150407_ﾃﾞ
  6
CONTINUOUS
 62
     7
100
AcDbLine
 10
87.9593641289
 20
140.0847882458
 30
0.0
 11
87.9593641289
 21
139.9047882458
 31
0.0
  0
LINE
  5
14A
330
3C
100
AcDbEntity
  8
棚板ブラケット150407_ﾃﾞ
  6
CONTINUOUS
 62
     7
100
AcDbLine
 10
88.1193641289
 20
139.9047882458
 30
0.0
 11
88.1193641289
 21
133.7486592135
 31
0.0
  0
LINE
  5
14B
330
3C
100
AcDbEntity
  8
棚板ブラケット150407_ﾃﾞ
  6
CONTINUOUS
 62
     7
100
AcDbLine
 10
88.1193641289
 20
140.0847882458
 30
0.0
 11
88.1193641289
 21
139.9047882458
 31
0.0
  0
LINE
  5
14C
330
3C
100
AcDbEntity
  8
棚板ブラケット150407_ﾃﾞ
  6
CONTINUOUS
 62
     7
100
AcDbLine
 10
87.2193641289
 20
139.9047882458
 30
0.0
 11
87.2269151584
 21
139.9047882458
 31
0.0
  0
LINE
  5
14D
330
3C
100
AcDbEntity
  8
棚板ブラケット150407_ﾃﾞ
  6
CONTINUOUS
 62
     7
100
AcDbLine
 10
88.0725012139
 20
139.9047882458
 30
0.0
 11
87.2269151584
 21
139.9047882458
 31
0.0
  0
LINE
  5
14E
330
3C
100
AcDbEntity
  8
棚板ブラケット150407_ﾃﾞ
  6
CONTINUOUS
 62
     7
100
AcDbLine
 10
87.2269151584
 20
139.9047882458
 30
0.0
 11
87.2269151584
 21
138.9847882458
 31
0.0
  0
LINE
  5
14F
330
3C
100
AcDbEntity
  8
棚板ブラケット150407_ﾃﾞ
  6
CONTINUOUS
 62
     7
100
AcDbLine
 10
87.2269151584
 20
135.4347882458
 30
0.0
 11
87.2269151584
 21
133.5195326695
 31
0.0
  0
LINE
  5
150
330
3C
100
AcDbEntity
  8
棚板ブラケット150407_ﾃﾞ
  6
CONTINUOUS
 62
     7
100
AcDbLine
 10
87.2269151584
 20
133.5195326695
 30
0.0
 11
88.0725012139
 21
133.7486592135
 31
0.0
  0
ELLIPSE
  5
151
330
3C
100
AcDbEntity
  8
棚板ブラケット150407_ﾃﾞ
  6
CONTINUOUS
 62
     7
100
AcDbEllipse
 10
87.2193641289
 20
133.5174865841
 30
0.0
 11
-0.01067697089628395
 21
-0.001473101238647079
 31
0.0
210
0.0
220
0.0
230
1.0
 40
0.1329977828
 41
3.90864317743528
 42
4.694041340830177
  0
LINE
  5
152
330
3C
100
AcDbEntity
  8
棚板ブラケット150407_ﾃﾞ
  6
CONTINUOUS
 62
     7
100
AcDbLine
 10
88.1193641289
 20
133.7486592135
 30
0.0
 11
88.0725012139
 21
133.7486592135
 31
0.0
  0
LINE
  5
153
330
3C
100
AcDbEntity
  8
棚板ブラケット150407_ﾃﾞ
  6
CONTINUOUS
 62
     7
100
AcDbLine
 10
88.0725012139
 20
139.9047882458
 30
0.0
 11
88.1193641289
 21
139.9047882458
 31
0.0
  0
LINE
  5
154
330
3C
100
AcDbEntity
  8
棚板ブラケット150407_ﾃﾞ
  6
CONTINUOUS
 62
     7
100
AcDbLine
 10
87.2193641289
 20
133.5047882458
 30
0.0
 11
87.0593641289
 21
133.5047882458
 31
0.0
  0
LINE
  5
155
330
3C
100
AcDbEntity
  8
棚板ブラケット150407_ﾃﾞ
  6
CONTINUOUS
 62
     7
100
AcDbLine
 10
87.0593641289
 20
139.4047882458
 30
0.0
 11
87.0593641289
 21
134.0047882458
 31
0.0
  0
LINE
  5
156
330
3C
100
AcDbEntity
  8
棚板ブラケット150407_ﾃﾞ
  6
CONTINUOUS
 62
     7
100
AcDbLine
 10
87.0593641289
 20
139.4047882458
 30
0.0
 11
87.0593641289
 21
139.9047882458
 31
0.0
  0
LINE
  5
157
330
3C
100
AcDbEntity
  8
棚板ブラケット150407_ﾃﾞ
  6
CONTINUOUS
 62
     7
100
AcDbLine
 10
87.0593641289
 20
133.5047882458
 30
0.0
 11
87.0593641289
 21
134.0047882458
 31
0.0
  0
LINE
  5
158
330
3C
100
AcDbEntity
  8
棚板ブラケット150407_ﾃﾞ
  6
CONTINUOUS
 62
     7
100
AcDbLine
 10
87.2193641289
 20
139.4047882458
 30
0.0
 11
87.2193641289
 21
134.0047882458
 31
0.0
  0
LINE
  5
159
330
3C
100
AcDbEntity
  8
棚板ブラケット150407_ﾃﾞ
  6
CONTINUOUS
 62
     7
100
AcDbLine
 10
87.2193641289
 20
139.9047882458
 30
0.0
 11
87.2193641289
 21
139.4047882458
 31
0.0
  0
LINE
  5
15A
330
3C
100
AcDbEntity
  8
棚板ブラケット150407_ﾃﾞ
  6
CONTINUOUS
 62
     7
100
AcDbLine
 10
87.2193641289
 20
134.0047882458
 30
0.0
 11
87.2193641289
 21
133.5047882458
 31
0.0
  0
LINE
  5
15B
330
3C
100
AcDbEntity
  8
棚板ブラケット150407_ﾃﾞ
  6
CONTINUOUS
 62
     7
100
AcDbLine
 10
87.0593641289
 20
139.9047882458
 30
0.0
 11
87.2193641289
 21
139.9047882458
 31
0.0
  0
LINE
  5
15D
330
3C
100
AcDbEntity
  8
棚板本体160803_ﾃﾞﾌｫﾙ_竡_疎__退_
  6
CONTINUOUS
 62
     7
100
AcDbLine
 10
165.2793641289
 20
140.0847882458
 30
0.0
 11
87.1793641289
 21
140.0847882458
 31
0.0
  0
LINE
  5
15E
330
3C
100
AcDbEntity
  8
棚板本体160803_ﾃﾞﾌｫﾙ_竡_疎__退_
  6
CONTINUOUS
 62
     7
100
AcDbLine
 10
87.1593641289
 20
141.5511686462
 30
0.0
 11
87.1593641289
 21
140.5147882458
 31
0.0
  0
LINE
  5
15F
330
3C
100
AcDbEntity
  8
棚板本体160803_ﾃﾞﾌｫﾙ_竡_疎__退_
  6
CONTINUOUS
 62
     7
100
AcDbLine
 10
87.1793641289
 20
141.5511686462
 30
0.0
 11
87.1593641289
 21
141.5511686462
 31
0.0
  0
LINE
  5
160
330
3C
100
AcDbEntity
  8
棚板本体160803_ﾃﾞﾌｫﾙ_竡_疎__退_
  6
CONTINUOUS
 62
     7
100
AcDbLine
 10
87.1593641289
 20
140.5147882458
 30
0.0
 11
87.1593641289
 21
140.2147882458
 31
0.0
  0
LINE
  5
161
330
3C
100
AcDbEntity
  8
棚板本体160803_ﾃﾞﾌｫﾙ_竡_疎__退_
  6
CONTINUOUS
 62
     7
100
AcDbLine
 10
87.1793641289
 20
140.2147882458
 30
0.0
 11
87.1593641289
 21
140.2147882458
 31
0.0
  0
LINE
  5
162
330
3C
100
AcDbEntity
  8
棚板本体160803_ﾃﾞﾌｫﾙ_竡_疎__退_
  6
CONTINUOUS
 62
     7
100
AcDbLine
 10
87.1593641289
 20
140.2147882458
 30
0.0
 11
87.1593641289
 21
140.1647882458
 31
0.0
  0
LINE
  5
163
330
3C
100
AcDbEntity
  8
棚板本体160803_ﾃﾞﾌｫﾙ_竡_疎__退_
  6
CONTINUOUS
 62
     7
100
AcDbLine
 10
87.1593641289
 20
141.7647882458
 30
0.0
 11
87.1593641289
 21
141.5511686462
 31
0.0
  0
LINE
  5
164
330
3C
100
AcDbEntity
  8
棚板本体160803_ﾃﾞﾌｫﾙ_竡_疎__退_
  6
CONTINUOUS
 62
     7
100
AcDbLine
 10
87.1793641289
 20
141.7647882458
 30
0.0
 11
87.1593641289
 21
141.7647882458
 31
0.0
  0
LINE
  5
165
330
3C
100
AcDbEntity
  8
棚板本体160803_ﾃﾞﾌｫﾙ_竡_疎__退_
  6
CONTINUOUS
 62
     7
100
AcDbLine
 10
87.1593641289
 20
142.0047882458
 30
0.0
 11
87.1593641289
 21
141.7647882458
 31
0.0
  0
LINE
  5
166
330
3C
100
AcDbEntity
  8
棚板本体160803_ﾃﾞﾌｫﾙ_竡_疎__退_
  6
CONTINUOUS
 62
     7
100
AcDbLine
 10
87.1793641289
 20
142.0847882458
 30
0.0
 11
165.2793641289
 21
142.0847882458
 31
0.0
  0
ARC
  5
167
330
3C
100
AcDbEntity
  8
棚板本体160803_ﾃﾞﾌｫﾙ_竡_疎__退_
  6
CONTINUOUS
 62
     7
100
AcDbCircle
 10
87.2393641289
 20
142.0047882458
 30
0.0
 40
0.0799999999999967
100
AcDbArc
 50
138.5903778907
 51
180.0
  0
ARC
  5
168
330
3C
100
AcDbEntity
  8
棚板本体160803_ﾃﾞﾌｫﾙ_竡_疎__退_
  6
CONTINUOUS
 62
     7
100
AcDbCircle
 10
87.2393641289
 20
140.1647882458
 30
0.0
 40
0.0799999999999967
100
AcDbArc
 50
180.0
 51
221.4096221093
  0
LINE
  5
169
330
3C
100
AcDbEntity
  8
棚板本体160803_ﾃﾞﾌｫﾙ_竡_疎__退_
  6
CONTINUOUS
 62
     7
100
AcDbLine
 10
87.1793641289
 20
141.6647882458
 30
0.0
 11
87.1793641289
 21
142.0847882458
 31
0.0
  0
LINE
  5
16A
330
3C
100
AcDbEntity
  8
棚板本体160803_ﾃﾞﾌｫﾙ_竡_疎__退_
  6
CONTINUOUS
 62
     7
100
AcDbLine
 10
87.1793641289
 20
140.0847882458
 30
0.0
 11
87.1793641289
 21
140.5047882458
 31
0.0
  0
LINE
  5
16B
330
3C
100
AcDbEntity
  8
棚板本体160803_ﾃﾞﾌｫﾙ_竡_疎__退_
  6
CONTINUOUS
 62
     7
100
AcDbLine
 10
87.1793641289
 20
140.5047882458
 30
0.0
 11
87.1793641289
 21
141.6647882458
 31
0.0
  0
LINE
  5
16C
330
3C
100
AcDbEntity
  8
棚板本体160803_ﾃﾞﾌｫﾙ_竡_疎__退_
  6
CONTINUOUS
 62
     7
100
AcDbLine
 10
165.2993641289
 20
142.0047882458
 30
0.0
 11
165.2993641289
 21
141.7647882458
 31
0.0
  0
LINE
  5
16D
330
3C
100
AcDbEntity
  8
棚板本体160803_ﾃﾞﾌｫﾙ_竡_疎__退_
  6
CONTINUOUS
 62
     7
100
AcDbLine
 10
165.2993641289
 20
141.7647882458
 30
0.0
 11
165.2993641289
 21
141.5511686462
 31
0.0
  0
LINE
  5
16E
330
3C
100
AcDbEntity
  8
棚板本体160803_ﾃﾞﾌｫﾙ_竡_疎__退_
  6
CONTINUOUS
 62
     7
100
AcDbLine
 10
165.2993641289
 20
141.5511686462
 30
0.0
 11
165.2993641289
 21
140.5147882458
 31
0.0
  0
LINE
  5
16F
330
3C
100
AcDbEntity
  8
棚板本体160803_ﾃﾞﾌｫﾙ_竡_疎__退_
  6
CONTINUOUS
 62
     7
100
AcDbLine
 10
165.2993641289
 20
140.5147882458
 30
0.0
 11
165.2993641289
 21
140.2147882458
 31
0.0
  0
LINE
  5
170
330
3C
100
AcDbEntity
  8
棚板本体160803_ﾃﾞﾌｫﾙ_竡_疎__退_
  6
CONTINUOUS
 62
     7
100
AcDbLine
 10
165.2993641289
 20
140.2147882458
 30
0.0
 11
165.2993641289
 21
140.1647882458
 31
0.0
  0
LINE
  5
171
330
3C
100
AcDbEntity
  8
棚板本体160803_ﾃﾞﾌｫﾙ_竡_疎__退_
  6
CONTINUOUS
 62
     7
100
AcDbLine
 10
165.2793641289
 20
140.5047882458
 30
0.0
 11
165.2793641289
 21
141.6647882458
 31
0.0
  0
LINE
  5
172
330
3C
100
AcDbEntity
  8
棚板本体160803_ﾃﾞﾌｫﾙ_竡_疎__退_
  6
CONTINUOUS
 62
     7
100
AcDbLine
 10
165.2793641289
 20
140.2147882458
 30
0.0
 11
165.2993641289
 21
140.2147882458
 31
0.0
  0
LINE
  5
173
330
3C
100
AcDbEntity
  8
棚板本体160803_ﾃﾞﾌｫﾙ_竡_疎__退_
  6
CONTINUOUS
 62
     7
100
AcDbLine
 10
165.2793641289
 20
141.5511686462
 30
0.0
 11
165.2993641289
 21
141.5511686462
 31
0.0
  0
LINE
  5
174
330
3C
100
AcDbEntity
  8
棚板本体160803_ﾃﾞﾌｫﾙ_竡_疎__退_
  6
CONTINUOUS
 62
     7
100
AcDbLine
 10
165.2793641289
 20
141.7647882458
 30
0.0
 11
165.2993641289
 21
141.7647882458
 31
0.0
  0
ARC
  5
175
330
3C
100
AcDbEntity
  8
棚板本体160803_ﾃﾞﾌｫﾙ_竡_疎__退_
  6
CONTINUOUS
 62
     7
100
AcDbCircle
 10
165.2193641289
 20
142.0047882458
 30
0.0
 40
0.0799999999999967
100
AcDbArc
 50
0.0
 51
41.4096221093
  0
LINE
  5
176
330
3C
100
AcDbEntity
  8
棚板本体160803_ﾃﾞﾌｫﾙ_竡_疎__退_
  6
CONTINUOUS
 62
     7
100
AcDbLine
 10
165.2793641289
 20
141.6647882458
 30
0.0
 11
165.2793641289
 21
142.0847882458
 31
0.0
  0
LINE
  5
177
330
3C
100
AcDbEntity
  8
棚板本体160803_ﾃﾞﾌｫﾙ_竡_疎__退_
  6
CONTINUOUS
 62
     7
100
AcDbLine
 10
165.2793641289
 20
140.0847882458
 30
0.0
 11
165.2793641289
 21
140.5047882458
 31
0.0
  0
ARC
  5
178
330
3C
100
AcDbEntity
  8
棚板本体160803_ﾃﾞﾌｫﾙ_竡_疎__退_
  6
CONTINUOUS
 62
     7
100
AcDbCircle
 10
165.2193641289
 20
140.1647882458
 30
0.0
 40
0.0799999999999967
100
AcDbArc
 50
318.5903778907
 51
0.0
  0
LINE
  5
17A
330
3C
100
AcDbEntity
  8
支柱外160803_ﾃﾞﾌｫﾙﾄ
  6
CONTINUOUS
 62
     7
100
AcDbLine
 10
86.9593641289
 20
237.4647882458
 30
0.0
 11
86.9593641289
 21
236.2041536419
 31
0.0
  0
LINE
  5
17B
330
3C
100
AcDbEntity
  8
支柱外160803_ﾃﾞﾌｫﾙﾄ
  6
CONTINUOUS
 62
     7
100
AcDbLine
 10
86.9593641289
 20
234.9360842432
 30
0.0
 11
86.9593641289
 21
227.5571402409
 31
0.0
  0
LINE
  5
17C
330
3C
100
AcDbEntity
  8
支柱外160803_ﾃﾞﾌｫﾙﾄ
  6
CONTINUOUS
 62
     7
100
AcDbLine
 10
86.9593641289
 20
194.5136625818
 30
0.0
 11
86.9593641289
 21
171.0706465999
 31
0.0
  0
LINE
  5
17D
330
3C
100
AcDbEntity
  8
支柱外160803_ﾃﾞﾌｫﾙﾄ
  6
CONTINUOUS
 62
     7
100
AcDbLine
 10
86.9593641289
 20
169.8025772011
 30
0.0
 11
86.9593641289
 21
105.9371395578
 31
0.0
  0
LINE
  5
17E
330
3C
100
AcDbEntity
  8
支柱外160803_ﾃﾞﾌｫﾙﾄ
  6
CONTINUOUS
 62
     7
100
AcDbLine
 10
86.9593641289
 20
104.6690701591
 30
0.0
 11
86.9593641289
 21
98.8386677783
 31
0.0
  0
SPLINE
  5
17F
330
3C
100
AcDbEntity
  8
支柱外160803_ﾃﾞﾌｫﾙﾄ
  6
CONTINUOUS
 62
     7
100
AcDbSpline
210
0.0
220
0.0
230
1.0
 70
     8
 71
     3
 72
    14
 73
    10
 74
     0
 42
0.0000000721352447
 43
0.0000000001
 40
0.0
 40
0.0
 40
0.0
 40
0.0
 40
0.25
 40
0.25
 40
0.5
 40
0.5
 40
0.75
 40
0.75
 40
0.7549067840950198
 40
0.7549067840950198
 40
0.7549067840950198
 40
0.7549067840950198
 10
86.95936412891045
 20
237.4647882457912
 30
0.0
 10
86.95936412891042
 20
237.4677007030915
 30
0.0
 10
86.95519975717735
 20
237.4706100068697
 30
0.0
 10
86.9391699510471
 20
237.4752147251338
 30
0.0
 10
86.92731082369411
 20
237.4769043126707
 30
0.0
 10
86.89769160410638
 20
237.4780342057568
 30
0.0
 10
86.87994316576975
 20
237.4774700515523
 30
0.0
 10
86.8602136991298
 20
237.4753948297795
 30
0.0
 10
86.85983330919598
 20
237.475354315515
 30
0.0
 10
86.85945232021669
 20
237.4753132327008
 30
0.0
  0
LINE
  5
180
330
3C
100
AcDbEntity
  8
支柱外160803_ﾃﾞﾌｫﾙﾄ
  6
CONTINUOUS
 62
     7
100
AcDbLine
 10
86.9593641289
 20
98.8386677783
 30
0.0
 11
86.9593641289
 21
98.1431496483
 31
0.0
  0
ELLIPSE
  5
181
330
3C
100
AcDbEntity
  8
支柱外160803_ﾃﾞﾌｫﾙﾄ
  6
CONTINUOUS
 62
     7
100
AcDbEllipse
 10
86.7993641289
 20
98.8386677783
 30
0.0
 11
0.159999999999999
 21
2.081668171172169E-14
 31
0.0
210
0.0
220
0.0
230
1.0
 40
0.3826834324
 41
0.0
 42
1.186399552299286
  0
LINE
  5
182
330
3C
100
AcDbEntity
  8
支柱外160803_ﾃﾞﾌｫﾙﾄ
  6
CONTINUOUS
 62
     7
100
AcDbLine
 10
86.9593641289
 20
98.1431496483
 30
0.0
 11
86.9593641289
 21
97.9147882458
 31
0.0
  0
LINE
  5
183
330
3C
100
AcDbEntity
  8
支柱外160803_ﾃﾞﾌｫﾙﾄ
  6
CONTINUOUS
 62
     7
100
AcDbLine
 10
86.9593641289
 20
97.9147882458
 30
0.0
 11
86.8593641289
 21
97.9147882458
 31
0.0
  0
LINE
  5
185
330
3C
100
AcDbEntity
  8
ﾐﾗｰ支柱外160803_ﾃﾞﾌ
  6
CONTINUOUS
 62
     7
100
AcDbLine
 10
165.4993641289
 20
237.4647882458
 30
0.0
 11
165.4993641289
 21
236.2041536419
 31
0.0
  0
LINE
  5
186
330
3C
100
AcDbEntity
  8
ﾐﾗｰ支柱外160803_ﾃﾞﾌ
  6
CONTINUOUS
 62
     7
100
AcDbLine
 10
165.4993641289
 20
234.9360842432
 30
0.0
 11
165.4993641289
 21
227.5571402409
 31
0.0
  0
LINE
  5
187
330
3C
100
AcDbEntity
  8
ﾐﾗｰ支柱外160803_ﾃﾞﾌ
  6
CONTINUOUS
 62
     7
100
AcDbLine
 10
165.4993641289
 20
194.5136625818
 30
0.0
 11
165.4993641289
 21
171.0706465999
 31
0.0
  0
LINE
  5
188
330
3C
100
AcDbEntity
  8
ﾐﾗｰ支柱外160803_ﾃﾞﾌ
  6
CONTINUOUS
 62
     7
100
AcDbLine
 10
165.4993641289
 20
169.8025772011
 30
0.0
 11
165.4993641289
 21
105.9371395578
 31
0.0
  0
LINE
  5
189
330
3C
100
AcDbEntity
  8
ﾐﾗｰ支柱外160803_ﾃﾞﾌ
  6
CONTINUOUS
 62
     7
100
AcDbLine
 10
165.4993641289
 20
104.6690701591
 30
0.0
 11
165.4993641289
 21
98.8386677783
 31
0.0
  0
SPLINE
  5
18A
330
3C
100
AcDbEntity
  8
ﾐﾗｰ支柱外160803_ﾃﾞﾌ
  6
CONTINUOUS
 62
     7
100
AcDbSpline
210
0.0
220
0.0
230
1.0
 70
     8
 71
     3
 72
    14
 73
    10
 74
     0
 42
0.0000000721351021
 43
0.0000000001
 40
0.0
 40
0.0
 40
0.0
 40
0.0
 40
0.25
 40
0.25
 40
0.5
 40
0.5
 40
0.75
 40
0.75
 40
0.7549067967860045
 40
0.7549067967860045
 40
0.7549067967860045
 40
0.7549067967860045
 10
165.4993641289105
 20
237.4647882457912
 30
0.0
 10
165.4993641289105
 20
237.4677011940597
 30
0.0
 10
165.5035285006435
 20
237.4706100068697
 30
0.0
 10
165.5195583067737
 20
237.4752147251337
 30
0.0
 10
165.5314174341268
 20
237.4769043126708
 30
0.0
 10
165.5610366537145
 20
237.4780342057568
 30
0.0
 10
165.5787850920511
 20
237.4774700515522
 30
0.0
 10
165.5985145596733
 20
237.4753948296762
 30
0.0
 10
165.5988949492325
 20
237.4753543156368
 30
0.0
 10
165.5992759365602
 20
237.4753132333566
 30
0.0
  0
LINE
  5
18B
330
3C
100
AcDbEntity
  8
ﾐﾗｰ支柱外160803_ﾃﾞﾌ
  6
CONTINUOUS
 62
     7
100
AcDbLine
 10
165.4993641289
 20
98.8386677783
 30
0.0
 11
165.4993641289
 21
98.1431496483
 31
0.0
  0
ELLIPSE
  5
18C
330
3C
100
AcDbEntity
  8
ﾐﾗｰ支柱外160803_ﾃﾞﾌ
  6
CONTINUOUS
 62
     7
100
AcDbEllipse
 10
165.6593641289
 20
98.8386677783
 30
0.0
 11
-0.159999999999999
 21
2.081668171172169E-14
 31
0.0
210
0.0
220
0.0
230
1.0
 40
0.3826834324
 41
5.096785754880396
 42
6.283185307179586
  0
LINE
  5
18D
330
3C
100
AcDbEntity
  8
ﾐﾗｰ支柱外160803_ﾃﾞﾌ
  6
CONTINUOUS
 62
     7
100
AcDbLine
 10
165.4993641289
 20
98.1431496483
 30
0.0
 11
165.4993641289
 21
97.9147882458
 31
0.0
  0
LINE
  5
18E
330
3C
100
AcDbEntity
  8
ﾐﾗｰ支柱外160803_ﾃﾞﾌ
  6
CONTINUOUS
 62
     7
100
AcDbLine
 10
165.4993641289
 20
97.9147882458
 30
0.0
 11
165.5993641289
 21
97.9147882458
 31
0.0
  0
LINE
  5
190
330
3C
100
AcDbEntity
  8
支柱カバー160803_ﾃﾞﾌｫ
  6
CONTINUOUS
 62
     7
100
AcDbLine
 10
86.7793641289
 20
97.9147882458
 30
0.0
 11
86.7793641289
 21
97.916006365
 31
0.0
  0
LINE
  5
191
330
3C
100
AcDbEntity
  8
支柱カバー160803_ﾃﾞﾌｫ
  6
CONTINUOUS
 62
     7
100
AcDbLine
 10
86.7793641289
 20
97.9147882458
 30
0.0
 11
86.7825472278
 21
97.9147882458
 31
0.0
  0
ELLIPSE
  5
192
330
3C
100
AcDbEntity
  8
支柱カバー160803_ﾃﾞﾌｫ
  6
CONTINUOUS
 62
     7
100
AcDbEllipse
 10
86.7793641289
 20
97.9147882458
 30
0.0
 11
-0.003183098861797573
 21
0.0
 31
0.0
210
0.0
220
0.0
230
1.0
 40
0.3826834323
 41
3.141592653589793
 42
4.71238898038469
  0
LINE
  5
193
330
3C
100
AcDbEntity
  8
支柱カバー160803_ﾃﾞﾌｫ
  6
CONTINUOUS
 62
     7
100
AcDbLine
 10
86.7825472278
 20
97.9147882458
 30
0.0
 11
86.8593641289
 21
97.9147882458
 31
0.0
  0
SPLINE
  5
194
330
3C
100
AcDbEntity
  8
支柱カバー160803_ﾃﾞﾌｫ
  6
CONTINUOUS
 62
     7
100
AcDbSpline
210
0.0
220
0.0
230
1.0
 70
     8
 71
     3
 72
    10
 73
     6
 74
     0
 42
0.0000001189237721
 43
0.0000000001
 40
0.0
 40
0.0
 40
0.0
 40
0.0
 40
0.5
 40
0.5
 40
1.0
 40
1.0
 40
1.0
 40
1.0
 10
86.85936412891044
 20
237.5847882457912
 30
0.0
 10
86.85936412891041
 20
237.5877007030918
 30
0.0
 10
86.85074228119927
 20
237.5905638059597
 30
0.0
 10
86.82112306161173
 20
237.5916936990457
 30
0.0
 10
86.80030807993468
 20
237.5898906915563
 30
0.0
 10
86.77936412891043
 20
237.5847882457912
 30
0.0
  0
ELLIPSE
  5
195
330
3C
100
AcDbEntity
  8
支柱カバー160803_ﾃﾞﾌｫ
  6
CONTINUOUS
 62
     7
100
AcDbEllipse
 10
86.7793641289
 20
97.9147882458
 30
0.0
 11
-0.07999999999994678
 21
0.0
 31
0.0
210
0.0
220
0.0
230
1.0
 40
0.3826834324
 41
3.141592653589793
 42
4.71238898038469
  0
LINE
  5
196
330
3C
100
AcDbEntity
  8
支柱カバー160803_ﾃﾞﾌｫ
  6
CONTINUOUS
 62
     7
100
AcDbLine
 10
86.8593641289
 20
97.9147882458
 30
0.0
 11
86.8593641289
 21
237.5847882458
 31
0.0
  0
LINE
  5
197
330
3C
100
AcDbEntity
  8
支柱カバー160803_ﾃﾞﾌｫ
  6
CONTINUOUS
 62
     7
100
AcDbLine
 10
86.7793641289
 20
237.5847882458
 30
0.0
 11
83.5266911169
 21
237.5847882458
 31
0.0
  0
ELLIPSE
  5
198
330
3C
100
AcDbEntity
  8
支柱カバー160803_ﾃﾞﾌｫ
  6
CONTINUOUS
 62
     7
100
AcDbEllipse
 10
86.7793641289
 20
97.9147882458
 30
0.0
 11
-0.003183098861947454
 21
8.326672684688676E-15
 31
0.0
210
0.0
220
0.0
230
1.0
 40
0.3826834324
 41
4.712388980385691
 42
6.283181534801194
  0
LINE
  5
199
330
3C
100
AcDbEntity
  8
支柱カバー160803_ﾃﾞﾌｫ
  6
CONTINUOUS
 62
     7
100
AcDbLine
 10
86.7793641289
 20
97.9454029204
 30
0.0
 11
83.5266911169
 21
97.9454029204
 31
0.0
  0
LINE
  5
19A
330
3C
100
AcDbEntity
  8
支柱カバー160803_ﾃﾞﾌｫ
  6
CONTINUOUS
 62
     7
100
AcDbLine
 10
86.77618103
 20
97.9147882458
 30
0.0
 11
83.5266911169
 21
97.9147882458
 31
0.0
  0
LINE
  5
19B
330
3C
100
AcDbEntity
  8
支柱カバー160803_ﾃﾞﾌｫ
  6
CONTINUOUS
 62
     7
100
AcDbLine
 10
81.6620900628
 20
237.5847882458
 30
0.0
 11
82.5607652906
 21
237.5847882458
 31
0.0
  0
ELLIPSE
  5
19C
330
3C
100
AcDbEntity
  8
支柱カバー160803_ﾃﾞﾌｫ
  6
CONTINUOUS
 62
     7
100
AcDbEllipse
 10
81.7393641289
 20
97.9147882458
 30
0.0
 11
-0.0201149604526274
 21
0.00192566949496209
 31
0.0
210
0.0
220
0.0
230
0.9999999999999999
 40
0.0254022729
 41
4.45302142861414
 42
6.023817755394663
  0
LINE
  5
19D
330
3C
100
AcDbEntity
  8
支柱カバー160803_ﾃﾞﾌｫ
  6
CONTINUOUS
 62
     7
100
AcDbLine
 10
82.5607652906
 20
97.9227119066
 30
0.0
 11
81.6620900628
 21
97.9227119066
 31
0.0
  0
LINE
  5
19E
330
3C
100
AcDbEntity
  8
支柱カバー160803_ﾃﾞﾌｫ
  6
CONTINUOUS
 62
     7
100
AcDbLine
 10
82.6380393567
 20
97.9147882458
 30
0.0
 11
81.7445702792
 21
97.9147882458
 31
0.0
  0
LINE
  5
19F
330
3C
100
AcDbEntity
  8
支柱カバー160803_ﾃﾞﾌｫ
  6
CONTINUOUS
 62
     7
100
AcDbLine
 10
81.7393641289
 20
97.9147882458
 30
0.0
 11
81.719249109
 21
97.9147882458
 31
0.0
  0
LINE
  5
1A0
330
3C
100
AcDbEntity
  8
支柱カバー160803_ﾃﾞﾌｫ
  6
CONTINUOUS
 62
     7
100
AcDbLine
 10
81.719249109
 20
97.9147882458
 30
0.0
 11
81.6593641289
 21
97.9147882458
 31
0.0
  0
LINE
  5
1A1
330
3C
100
AcDbEntity
  8
支柱カバー160803_ﾃﾞﾌｫ
  6
CONTINUOUS
 62
     7
100
AcDbLine
 10
81.6593641289
 20
97.9147882458
 30
0.0
 11
81.6593641289
 21
237.5847882458
 31
0.0
  0
LINE
  5
1A2
330
3C
100
AcDbEntity
  8
支柱カバー160803_ﾃﾞﾌｫ
  6
CONTINUOUS
 62
     7
100
AcDbLine
 10
81.7393641289
 20
97.9147882458
 30
0.0
 11
81.7393641289
 21
97.9153038929
 31
0.0
  0
ELLIPSE
  5
1A3
330
3C
100
AcDbEntity
  8
支柱カバー160803_ﾃﾞﾌｫ
  6
CONTINUOUS
 62
     7
100
AcDbEllipse
 10
81.7393641289
 20
97.9147882458
 30
0.0
 11
-0.02011501993093856
 21
2.636779683484747E-14
 31
0.0
210
0.0
220
0.0
230
1.0
 40
0.3826834324
 41
6.021385919383119
 42
6.28318530717932
  0
LINE
  5
1A4
330
3C
100
AcDbEntity
  8
支柱カバー160803_ﾃﾞﾌｫ
  6
CONTINUOUS
 62
     7
100
AcDbLine
 10
81.7199345117
 20
97.9167805532
 30
0.0
 11
81.6620900628
 21
97.9227119066
 31
0.0
  0
ELLIPSE
  5
1A5
330
3C
100
AcDbEntity
  8
支柱カバー160803_ﾃﾞﾌｫ
  6
CONTINUOUS
 62
     7
100
AcDbEllipse
 10
81.7393641289
 20
97.9147882458
 30
0.0
 11
-0.07999999999975806
 21
-4.857225732735060E-14
 31
0.0
210
0.0
220
0.0
230
1.0
 40
0.3826834324
 41
6.021385919380007
 42
6.283185307179586
  0
LINE
  5
1A6
330
3C
100
AcDbEntity
  8
支柱カバー160803_ﾃﾞﾌｫ
  6
CONTINUOUS
 62
     7
100
AcDbLine
 10
81.6620900628
 20
237.5847882458
 30
0.0
 11
81.66004854
 21
237.5847537643
 31
0.0
  0
LINE
  5
1A7
330
3C
100
AcDbEntity
  8
支柱カバー160803_ﾃﾞﾌｫ
  6
CONTINUOUS
 62
     7
100
AcDbLine
 10
81.66004854
 20
237.5847537643
 30
0.0
 11
81.6593641289
 21
237.5847882458
 31
0.0
  0
ARC
  5
1A8
330
3C
100
AcDbEntity
  8
支柱カバー160803_ﾃﾞﾌｫ
  6
CONTINUOUS
 62
     7
100
AcDbCircle
 10
83.5870377593
 20
74.8061030054
 30
0.0
 40
23.13937860597742
100
AcDbArc
 50
90.1494254404
 51
92.5420032625
  0
ARC
  5
1A9
330
3C
100
AcDbEntity
  8
支柱カバー160803_ﾃﾞﾌｫ
  6
CONTINUOUS
 62
     7
100
AcDbCircle
 10
83.0437282037
 20
-726.5480641758
 30
0.0
 40
964.1329733868508
100
AcDbArc
 50
89.9712988369
 51
90.0287011631
  0
ARC
  5
1AA
330
3C
100
AcDbEntity
  8
支柱カバー160803_ﾃﾞﾌｫ
  6
CONTINUOUS
 62
     7
100
AcDbCircle
 10
83.0823652368
 20
113.3196552783
 30
0.0
 40
15.41127359356652
100
AcDbArc
 50
268.6022721983
 51
271.6521363904
  0
LINE
  5
1AB
330
3C
100
AcDbEntity
  8
支柱カバー160803_ﾃﾞﾌｫ
  6
CONTINUOUS
 62
     7
100
AcDbLine
 10
81.7445702792
 20
97.9147882458
 30
0.0
 11
81.7393641289
 21
97.9147882458
 31
0.0
  0
ARC
  5
1AC
330
3C
100
AcDbEntity
  8
支柱カバー160803_ﾃﾞﾌｫ
  6
CONTINUOUS
 62
     7
100
AcDbCircle
 10
82.0401763377
 20
94.0309834098
 30
0.0
 40
3.937784056867077
100
AcDbArc
 50
80.238459649
 51
81.4695509275
  0
LINE
  5
1AE
330
3C
100
AcDbEntity
  8
支柱上蓋150407_ﾃﾞﾌｫﾙ晗_____退_
  6
CONTINUOUS
 62
     7
100
AcDbLine
 10
86.8593641289
 20
237.5847882458
 30
0.0
 11
86.9593641289
 21
237.5847882458
 31
0.0
  0
LINE
  5
1AF
330
3C
100
AcDbEntity
  8
支柱上蓋150407_ﾃﾞﾌｫﾙ晗_____退_
  6
CONTINUOUS
 62
     7
100
AcDbLine
 10
86.9593641289
 20
237.5847882458
 30
0.0
 11
86.9593641289
 21
237.4647882458
 31
0.0
  0
LINE
  5
1B1
330
3C
100
AcDbEntity
  8
支柱連結パイプ160803_0
  6
CONTINUOUS
 62
     7
100
AcDbLine
 10
86.9593641289
 20
228.0490691452
 30
0.0
 11
87.0593641289
 21
228.0490691452
 31
0.0
  0
LINE
  5
1B2
330
3C
100
AcDbEntity
  8
支柱連結パイプ160803_0
  6
CONTINUOUS
 62
     7
100
AcDbLine
 10
165.3993641289
 20
228.0490691452
 30
0.0
 11
165.4993641289
 21
228.0490691452
 31
0.0
  0
LINE
  5
1B3
330
3C
100
AcDbEntity
  8
支柱連結パイプ160803_0
  6
CONTINUOUS
 62
     7
100
AcDbLine
 10
165.4993641289
 20
233.6145588311
 30
0.0
 11
157.9793641289
 21
233.6145588311
 31
0.0
  0
LINE
  5
1B4
330
3C
100
AcDbEntity
  8
支柱連結パイプ160803_0
  6
CONTINUOUS
 62
     7
100
AcDbLine
 10
154.4793641289
 20
233.6145588311
 30
0.0
 11
97.9793641289
 21
233.6145588311
 31
0.0
  0
LINE
  5
1B5
330
3C
100
AcDbEntity
  8
支柱連結パイプ160803_0
  6
CONTINUOUS
 62
     7
100
AcDbLine
 10
94.4793641289
 20
233.6145588311
 30
0.0
 11
86.9593641289
 21
233.6145588311
 31
0.0
  0
LINE
  5
1B6
330
3C
100
AcDbEntity
  8
支柱連結パイプ160803_0
  6
CONTINUOUS
 62
     7
100
AcDbLine
 10
86.9593641289
 20
124.7508319034
 30
0.0
 11
165.4993641289
 21
124.7508319034
 31
0.0
  0
LINE
  5
1B7
330
3C
100
AcDbEntity
  8
支柱連結パイプ160803_0
  6
CONTINUOUS
 62
     7
100
AcDbLine
 10
165.4993641289
 20
130.3163215894
 30
0.0
 11
86.9593641289
 21
130.3163215894
 31
0.0
  0
LINE
  5
1B9
330
3C
100
AcDbEntity
  8
ブラインドリベット150204_
  6
CONTINUOUS
 62
     7
100
AcDbLine
 10
87.0493641289
 20
236.5347882458
 30
0.0
 11
87.0493641289
 21
236.8347882458
 31
0.0
  0
ARC
  5
1BA
330
3C
100
AcDbEntity
  8
ブラインドリベット150204_
  6
CONTINUOUS
 62
     7
100
AcDbCircle
 10
86.7785307956
 20
236.8347882458
 30
0.0
 40
0.2708333333333369
100
AcDbArc
 50
0.0
 51
36.727267076
  0
ARC
  5
1BB
330
3C
100
AcDbEntity
  8
ブラインドリベット150204_
  6
CONTINUOUS
 62
     7
100
AcDbCircle
 10
86.7785307956
 20
236.5347882458
 30
0.0
 40
0.2708333333333324
100
AcDbArc
 50
323.272732924
 51
0.0
  0
LINE
  5
1BC
330
3C
100
AcDbEntity
  8
ブラインドリベット150204_
  6
CONTINUOUS
 62
     7
100
AcDbLine
 10
86.9795714907
 20
237.0047882458
 30
0.0
 11
86.9593641289
 21
237.0047882458
 31
0.0
  0
LINE
  5
1BD
330
3C
100
AcDbEntity
  8
ブラインドリベット150204_
  6
CONTINUOUS
 62
     7
100
AcDbLine
 10
86.9593641289
 20
236.3647882458
 30
0.0
 11
86.9795714907
 21
236.3647882458
 31
0.0
  0
ARC
  5
1BE
330
3C
100
AcDbEntity
  8
ブラインドリベット150204_
  6
CONTINUOUS
 62
     7
100
AcDbCircle
 10
86.9795714907
 20
236.3847882458
 30
0.0
 40
0.02000000000002
100
AcDbArc
 50
270.0
 51
323.272732924
  0
ARC
  5
1BF
330
3C
100
AcDbEntity
  8
ブラインドリベット150204_
  6
CONTINUOUS
 62
     7
100
AcDbCircle
 10
86.9795714907
 20
236.9847882458
 30
0.0
 40
0.0200000000000075
100
AcDbArc
 50
36.727267076
 51
90.0
  0
LINE
  5
1C0
330
3C
100
AcDbEntity
  8
ブラインドリベット150204_
  6
CONTINUOUS
 62
     7
100
AcDbLine
 10
165.4093641289
 20
236.5347882458
 30
0.0
 11
165.4093641289
 21
236.8347882458
 31
0.0
  0
ARC
  5
1C1
330
3C
100
AcDbEntity
  8
ブラインドリベット150204_
  6
CONTINUOUS
 62
     7
100
AcDbCircle
 10
165.6801974622
 20
236.5347882458
 30
0.0
 40
0.2708333333333369
100
AcDbArc
 50
180.0
 51
216.727267076
  0
ARC
  5
1C2
330
3C
100
AcDbEntity
  8
ブラインドリベット150204_
  6
CONTINUOUS
 62
     7
100
AcDbCircle
 10
165.6801974622
 20
236.8347882458
 30
0.0
 40
0.2708333333333324
100
AcDbArc
 50
143.272732924
 51
180.0
  0
LINE
  5
1C3
330
3C
100
AcDbEntity
  8
ブラインドリベット150204_
  6
CONTINUOUS
 62
     7
100
AcDbLine
 10
165.4791567671
 20
236.3647882458
 30
0.0
 11
165.4993641289
 21
236.3647882458
 31
0.0
  0
LINE
  5
1C4
330
3C
100
AcDbEntity
  8
ブラインドリベット150204_
  6
CONTINUOUS
 62
     7
100
AcDbLine
 10
165.4993641289
 20
237.0047882458
 30
0.0
 11
165.4791567671
 21
237.0047882458
 31
0.0
  0
ARC
  5
1C5
330
3C
100
AcDbEntity
  8
ブラインドリベット150204_
  6
CONTINUOUS
 62
     7
100
AcDbCircle
 10
165.4791567671
 20
236.9847882458
 30
0.0
 40
0.02000000000002
100
AcDbArc
 50
90.0
 51
143.272732924
  0
ARC
  5
1C6
330
3C
100
AcDbEntity
  8
ブラインドリベット150204_
  6
CONTINUOUS
 62
     7
100
AcDbCircle
 10
165.4791567671
 20
236.3847882458
 30
0.0
 40
0.0200000000000075
100
AcDbArc
 50
216.727267076
 51
270.0
  0
LINE
  5
1C8
330
3C
100
AcDbEntity
  8
アジャスター_大昌H150_12
  6
CONTINUOUS
 62
     7
100
AcDbLine
 10
86.5043641289
 20
88.0835850697
 30
0.0
 11
82.6543641289
 21
88.0835850697
 31
0.0
  0
LINE
  5
1C9
330
3C
100
AcDbEntity
  8
アジャスター_大昌H150_12
  6
CONTINUOUS
 62
     7
100
AcDbLine
 10
82.7543641289
 20
87.0835850697
 30
0.0
 11
86.4043641289
 21
87.0835850697
 31
0.0
  0
LINE
  5
1CA
330
3C
100
AcDbEntity
  8
アジャスター_大昌H150_12
  6
CONTINUOUS
 62
     7
100
AcDbLine
 10
86.4985110748
 20
87.1835850697
 30
0.0
 11
86.5043641289
 21
87.1835850697
 31
0.0
  0
LINE
  5
1CB
330
3C
100
AcDbEntity
  8
アジャスター_大昌H150_12
  6
CONTINUOUS
 62
     7
100
AcDbLine
 10
86.4985110748
 20
87.9835850697
 30
0.0
 11
86.4985110748
 21
87.1835850697
 31
0.0
  0
LINE
  5
1CC
330
3C
100
AcDbEntity
  8
アジャスター_大昌H150_12
  6
CONTINUOUS
 62
     7
100
AcDbLine
 10
86.4985110748
 20
87.9835850697
 30
0.0
 11
86.5043641289
 21
87.9835850697
 31
0.0
  0
LINE
  5
1CD
330
3C
100
AcDbEntity
  8
アジャスター_大昌H150_12
  6
CONTINUOUS
 62
     7
100
AcDbLine
 10
86.362595097
 20
87.9835850697
 30
0.0
 11
86.362595097
 21
87.1835850697
 31
0.0
  0
LINE
  5
1CE
330
3C
100
AcDbEntity
  8
アジャスター_大昌H150_12
  6
CONTINUOUS
 62
     7
100
AcDbLine
 10
86.3582287884
 20
87.1835850697
 30
0.0
 11
86.4509338867
 21
87.1835850697
 31
0.0
  0
LINE
  5
1CF
330
3C
100
AcDbEntity
  8
アジャスター_大昌H150_12
  6
CONTINUOUS
 62
     7
100
AcDbLine
 10
86.3582287884
 20
87.9835850697
 30
0.0
 11
86.3582287884
 21
87.1835850697
 31
0.0
  0
LINE
  5
1D0
330
3C
100
AcDbEntity
  8
アジャスター_大昌H150_12
  6
CONTINUOUS
 62
     7
100
AcDbLine
 10
86.4509338867
 20
87.9835850697
 30
0.0
 11
86.4509338867
 21
87.1835850697
 31
0.0
  0
LINE
  5
1D1
330
3C
100
AcDbEntity
  8
アジャスター_大昌H150_12
  6
CONTINUOUS
 62
     7
100
AcDbLine
 10
86.3582287884
 20
87.9835850697
 30
0.0
 11
86.4509338867
 21
87.9835850697
 31
0.0
  0
LINE
  5
1D2
330
3C
100
AcDbEntity
  8
アジャスター_大昌H150_12
  6
CONTINUOUS
 62
     7
100
AcDbLine
 10
86.0962709934
 20
87.9835850697
 30
0.0
 11
86.0962709934
 21
87.1835850697
 31
0.0
  0
LINE
  5
1D3
330
3C
100
AcDbEntity
  8
アジャスター_大昌H150_12
  6
CONTINUOUS
 62
     7
100
AcDbLine
 10
86.043818835
 20
87.1835850697
 30
0.0
 11
86.2201544107
 21
87.1835850697
 31
0.0
  0
LINE
  5
1D4
330
3C
100
AcDbEntity
  8
アジャスター_大昌H150_12
  6
CONTINUOUS
 62
     7
100
AcDbLine
 10
86.043818835
 20
87.9835850697
 30
0.0
 11
86.043818835
 21
87.1835850697
 31
0.0
  0
LINE
  5
1D5
330
3C
100
AcDbEntity
  8
アジャスター_大昌H150_12
  6
CONTINUOUS
 62
     7
100
AcDbLine
 10
86.2201544107
 20
87.9835850697
 30
0.0
 11
86.2201544107
 21
87.1835850697
 31
0.0
  0
LINE
  5
1D6
330
3C
100
AcDbEntity
  8
アジャスター_大昌H150_12
  6
CONTINUOUS
 62
     7
100
AcDbLine
 10
86.043818835
 20
87.9835850697
 30
0.0
 11
86.2201544107
 21
87.9835850697
 31
0.0
  0
LINE
  5
1D7
330
3C
100
AcDbEntity
  8
アジャスター_大昌H150_12
  6
CONTINUOUS
 62
     7
100
AcDbLine
 10
85.681461477
 20
87.9835850697
 30
0.0
 11
85.681461477
 21
87.1835850697
 31
0.0
  0
LINE
  5
1D8
330
3C
100
AcDbEntity
  8
アジャスター_大昌H150_12
  6
CONTINUOUS
 62
     7
100
AcDbLine
 10
85.5860578515
 20
87.1835850697
 30
0.0
 11
85.8287629499
 21
87.1835850697
 31
0.0
  0
LINE
  5
1D9
330
3C
100
AcDbEntity
  8
アジャスター_大昌H150_12
  6
CONTINUOUS
 62
     7
100
AcDbLine
 10
85.5860578515
 20
87.9835850697
 30
0.0
 11
85.5860578515
 21
87.1835850697
 31
0.0
  0
LINE
  5
1DA
330
3C
100
AcDbEntity
  8
アジャスター_大昌H150_12
  6
CONTINUOUS
 62
     7
100
AcDbLine
 10
85.8287629499
 20
87.9835850697
 30
0.0
 11
85.8287629499
 21
87.1835850697
 31
0.0
  0
LINE
  5
1DB
330
3C
100
AcDbEntity
  8
アジャスター_大昌H150_12
  6
CONTINUOUS
 62
     7
100
AcDbLine
 10
85.5860578515
 20
87.9835850697
 30
0.0
 11
85.8287629499
 21
87.9835850697
 31
0.0
  0
LINE
  5
1DC
330
3C
100
AcDbEntity
  8
アジャスター_大昌H150_12
  6
CONTINUOUS
 62
     7
100
AcDbLine
 10
85.1587709934
 20
87.9835850697
 30
0.0
 11
85.1587709934
 21
87.1835850697
 31
0.0
  0
LINE
  5
1DD
330
3C
100
AcDbEntity
  8
アジャスター_大昌H150_12
  6
CONTINUOUS
 62
     7
100
AcDbLine
 10
85.0297546725
 20
87.1835850697
 30
0.0
 11
85.3150716273
 21
87.1835850697
 31
0.0
  0
LINE
  5
1DE
330
3C
100
AcDbEntity
  8
アジャスター_大昌H150_12
  6
CONTINUOUS
 62
     7
100
AcDbLine
 10
85.0297546725
 20
87.9835850697
 30
0.0
 11
85.0297546725
 21
87.1835850697
 31
0.0
  0
LINE
  5
1DF
330
3C
100
AcDbEntity
  8
アジャスター_大昌H150_12
  6
CONTINUOUS
 62
     7
100
AcDbLine
 10
85.3150716273
 20
87.9835850697
 30
0.0
 11
85.3150716273
 21
87.1835850697
 31
0.0
  0
LINE
  5
1E0
330
3C
100
AcDbEntity
  8
アジャスター_大昌H150_12
  6
CONTINUOUS
 62
     7
100
AcDbLine
 10
85.0297546725
 20
87.9835850697
 30
0.0
 11
85.3150716273
 21
87.9835850697
 31
0.0
  0
LINE
  5
1E1
330
3C
100
AcDbEntity
  8
アジャスター_大昌H150_12
  6
CONTINUOUS
 62
     7
100
AcDbLine
 10
84.5793641289
 20
87.9835850697
 30
0.0
 11
84.5793641289
 21
87.1835850697
 31
0.0
  0
LINE
  5
1E2
330
3C
100
AcDbEntity
  8
アジャスター_大昌H150_12
  6
CONTINUOUS
 62
     7
100
AcDbLine
 10
84.4293641289
 20
87.1835850697
 30
0.0
 11
84.7293641289
 21
87.1835850697
 31
0.0
  0
LINE
  5
1E3
330
3C
100
AcDbEntity
  8
アジャスター_大昌H150_12
  6
CONTINUOUS
 62
     7
100
AcDbLine
 10
84.4293641289
 20
87.9835850697
 30
0.0
 11
84.4293641289
 21
87.1835850697
 31
0.0
  0
LINE
  5
1E4
330
3C
100
AcDbEntity
  8
アジャスター_大昌H150_12
  6
CONTINUOUS
 62
     7
100
AcDbLine
 10
84.7293641289
 20
87.9835850697
 30
0.0
 11
84.7293641289
 21
87.1835850697
 31
0.0
  0
LINE
  5
1E5
330
3C
100
AcDbEntity
  8
アジャスター_大昌H150_12
  6
CONTINUOUS
 62
     7
100
AcDbLine
 10
84.4293641289
 20
87.9835850697
 30
0.0
 11
84.7293641289
 21
87.9835850697
 31
0.0
  0
LINE
  5
1E6
330
3C
100
AcDbEntity
  8
アジャスター_大昌H150_12
  6
CONTINUOUS
 62
     7
100
AcDbLine
 10
83.9999572645
 20
87.9835850697
 30
0.0
 11
83.9999572645
 21
87.1835850697
 31
0.0
  0
LINE
  5
1E7
330
3C
100
AcDbEntity
  8
アジャスター_大昌H150_12
  6
CONTINUOUS
 62
     7
100
AcDbLine
 10
83.8436566305
 20
87.1835850697
 30
0.0
 11
84.1289735854
 21
87.1835850697
 31
0.0
  0
LINE
  5
1E8
330
3C
100
AcDbEntity
  8
アジャスター_大昌H150_12
  6
CONTINUOUS
 62
     7
100
AcDbLine
 10
83.8436566305
 20
87.9835850697
 30
0.0
 11
83.8436566305
 21
87.1835850697
 31
0.0
  0
LINE
  5
1E9
330
3C
100
AcDbEntity
  8
アジャスター_大昌H150_12
  6
CONTINUOUS
 62
     7
100
AcDbLine
 10
84.1289735854
 20
87.9835850697
 30
0.0
 11
84.1289735854
 21
87.1835850697
 31
0.0
  0
LINE
  5
1EA
330
3C
100
AcDbEntity
  8
アジャスター_大昌H150_12
  6
CONTINUOUS
 62
     7
100
AcDbLine
 10
83.8436566305
 20
87.9835850697
 30
0.0
 11
84.1289735854
 21
87.9835850697
 31
0.0
  0
LINE
  5
1EB
330
3C
100
AcDbEntity
  8
アジャスター_大昌H150_12
  6
CONTINUOUS
 62
     7
100
AcDbLine
 10
83.4772667809
 20
87.9835850697
 30
0.0
 11
83.4772667809
 21
87.1835850697
 31
0.0
  0
LINE
  5
1EC
330
3C
100
AcDbEntity
  8
アジャスター_大昌H150_12
  6
CONTINUOUS
 62
     7
100
AcDbLine
 10
83.329965308
 20
87.1835850697
 30
0.0
 11
83.5726704063
 21
87.1835850697
 31
0.0
  0
LINE
  5
1ED
330
3C
100
AcDbEntity
  8
アジャスター_大昌H150_12
  6
CONTINUOUS
 62
     7
100
AcDbLine
 10
83.329965308
 20
87.9835850697
 30
0.0
 11
83.329965308
 21
87.1835850697
 31
0.0
  0
LINE
  5
1EE
330
3C
100
AcDbEntity
  8
アジャスター_大昌H150_12
  6
CONTINUOUS
 62
     7
100
AcDbLine
 10
83.5726704063
 20
87.9835850697
 30
0.0
 11
83.5726704063
 21
87.1835850697
 31
0.0
  0
LINE
  5
1EF
330
3C
100
AcDbEntity
  8
アジャスター_大昌H150_12
  6
CONTINUOUS
 62
     7
100
AcDbLine
 10
83.329965308
 20
87.9835850697
 30
0.0
 11
83.5726704063
 21
87.9835850697
 31
0.0
  0
LINE
  5
1F0
330
3C
100
AcDbEntity
  8
アジャスター_大昌H150_12
  6
CONTINUOUS
 62
     7
100
AcDbLine
 10
83.0624572645
 20
87.9835850697
 30
0.0
 11
83.0624572645
 21
87.1835850697
 31
0.0
  0
LINE
  5
1F1
330
3C
100
AcDbEntity
  8
アジャスター_大昌H150_12
  6
CONTINUOUS
 62
     7
100
AcDbLine
 10
82.9385738471
 20
87.1835850697
 30
0.0
 11
83.1149094228
 21
87.1835850697
 31
0.0
  0
LINE
  5
1F2
330
3C
100
AcDbEntity
  8
アジャスター_大昌H150_12
  6
CONTINUOUS
 62
     7
100
AcDbLine
 10
82.9385738471
 20
87.9835850697
 30
0.0
 11
82.9385738471
 21
87.1835850697
 31
0.0
  0
LINE
  5
1F3
330
3C
100
AcDbEntity
  8
アジャスター_大昌H150_12
  6
CONTINUOUS
 62
     7
100
AcDbLine
 10
83.1149094228
 20
87.9835850697
 30
0.0
 11
83.1149094228
 21
87.1835850697
 31
0.0
  0
LINE
  5
1F4
330
3C
100
AcDbEntity
  8
アジャスター_大昌H150_12
  6
CONTINUOUS
 62
     7
100
AcDbLine
 10
82.9385738471
 20
87.9835850697
 30
0.0
 11
83.1149094228
 21
87.9835850697
 31
0.0
  0
LINE
  5
1F5
330
3C
100
AcDbEntity
  8
アジャスター_大昌H150_12
  6
CONTINUOUS
 62
     7
100
AcDbLine
 10
82.7961331609
 20
87.9835850697
 30
0.0
 11
82.7961331609
 21
87.1835850697
 31
0.0
  0
LINE
  5
1F6
330
3C
100
AcDbEntity
  8
アジャスター_大昌H150_12
  6
CONTINUOUS
 62
     7
100
AcDbLine
 10
82.7077943711
 20
87.1835850697
 30
0.0
 11
82.8004994694
 21
87.1835850697
 31
0.0
  0
LINE
  5
1F7
330
3C
100
AcDbEntity
  8
アジャスター_大昌H150_12
  6
CONTINUOUS
 62
     7
100
AcDbLine
 10
82.7077943711
 20
87.9835850697
 30
0.0
 11
82.7077943711
 21
87.1835850697
 31
0.0
  0
LINE
  5
1F8
330
3C
100
AcDbEntity
  8
アジャスター_大昌H150_12
  6
CONTINUOUS
 62
     7
100
AcDbLine
 10
82.8004994694
 20
87.9835850697
 30
0.0
 11
82.8004994694
 21
87.1835850697
 31
0.0
  0
LINE
  5
1F9
330
3C
100
AcDbEntity
  8
アジャスター_大昌H150_12
  6
CONTINUOUS
 62
     7
100
AcDbLine
 10
82.7077943711
 20
87.9835850697
 30
0.0
 11
82.8004994694
 21
87.9835850697
 31
0.0
  0
LINE
  5
1FA
330
3C
100
AcDbEntity
  8
アジャスター_大昌H150_12
  6
CONTINUOUS
 62
     7
100
AcDbLine
 10
82.660217183
 20
87.1835850697
 30
0.0
 11
82.6543641289
 21
87.1835850697
 31
0.0
  0
LINE
  5
1FB
330
3C
100
AcDbEntity
  8
アジャスター_大昌H150_12
  6
CONTINUOUS
 62
     7
100
AcDbLine
 10
82.660217183
 20
87.9835850697
 30
0.0
 11
82.660217183
 21
87.1835850697
 31
0.0
  0
LINE
  5
1FC
330
3C
100
AcDbEntity
  8
アジャスター_大昌H150_12
  6
CONTINUOUS
 62
     7
100
AcDbLine
 10
82.660217183
 20
87.9835850697
 30
0.0
 11
82.6543641289
 21
87.9835850697
 31
0.0
  0
LINE
  5
1FD
330
3C
100
AcDbEntity
  8
アジャスター_大昌H150_12
  6
CONTINUOUS
 62
     7
100
AcDbLine
 10
85.0793641289
 20
88.0835850697
 30
0.0
 11
85.0793641289
 21
89.1335850697
 31
0.0
  0
LINE
  5
1FE
330
3C
100
AcDbEntity
  8
アジャスター_大昌H150_12
  6
CONTINUOUS
 62
     7
100
AcDbLine
 10
84.0793641289
 20
89.1335850697
 30
0.0
 11
84.0793641289
 21
88.0835850697
 31
0.0
  0
ARC
  5
1FF
330
3C
100
AcDbEntity
  8
アジャスター_大昌H150_12
  6
CONTINUOUS
 62
     7
100
AcDbCircle
 10
82.7543641289
 20
87.1835850697
 30
0.0
 40
0.1000000000000001
100
AcDbArc
 50
180.0
 51
270.0
  0
ARC
  5
200
330
3C
100
AcDbEntity
  8
アジャスター_大昌H150_12
  6
CONTINUOUS
 62
     7
100
AcDbCircle
 10
86.4043641289
 20
87.1835850697
 30
0.0
 40
0.1
100
AcDbArc
 50
270.0
 51
0.0
  0
LINE
  5
201
330
3C
100
AcDbEntity
  8
アジャスター_大昌H150_12
  6
CONTINUOUS
 62
     7
100
AcDbLine
 10
86.5043641289
 20
87.9835850697
 30
0.0
 11
86.5043641289
 21
88.0835850697
 31
0.0
  0
LINE
  5
202
330
3C
100
AcDbEntity
  8
アジャスター_大昌H150_12
  6
CONTINUOUS
 62
     7
100
AcDbLine
 10
82.6543641289
 20
88.0835850697
 30
0.0
 11
82.6543641289
 21
87.9835850697
 31
0.0
  0
LINE
  5
203
330
3C
100
AcDbEntity
  8
アジャスター_大昌H150_12
  6
CONTINUOUS
 62
     7
100
AcDbLine
 10
169.8043641289
 20
88.0835850697
 30
0.0
 11
165.9543641289
 21
88.0835850697
 31
0.0
  0
LINE
  5
204
330
3C
100
AcDbEntity
  8
アジャスター_大昌H150_12
  6
CONTINUOUS
 62
     7
100
AcDbLine
 10
166.0543641289
 20
87.0835850697
 30
0.0
 11
169.7043641289
 21
87.0835850697
 31
0.0
  0
LINE
  5
205
330
3C
100
AcDbEntity
  8
アジャスター_大昌H150_12
  6
CONTINUOUS
 62
     7
100
AcDbLine
 10
169.7985110748
 20
87.1835850697
 30
0.0
 11
169.8043641289
 21
87.1835850697
 31
0.0
  0
LINE
  5
206
330
3C
100
AcDbEntity
  8
アジャスター_大昌H150_12
  6
CONTINUOUS
 62
     7
100
AcDbLine
 10
169.7985110748
 20
87.9835850697
 30
0.0
 11
169.7985110748
 21
87.1835850697
 31
0.0
  0
LINE
  5
207
330
3C
100
AcDbEntity
  8
アジャスター_大昌H150_12
  6
CONTINUOUS
 62
     7
100
AcDbLine
 10
169.7985110748
 20
87.9835850697
 30
0.0
 11
169.8043641289
 21
87.9835850697
 31
0.0
  0
LINE
  5
208
330
3C
100
AcDbEntity
  8
アジャスター_大昌H150_12
  6
CONTINUOUS
 62
     7
100
AcDbLine
 10
169.662595097
 20
87.9835850697
 30
0.0
 11
169.662595097
 21
87.1835850697
 31
0.0
  0
LINE
  5
209
330
3C
100
AcDbEntity
  8
アジャスター_大昌H150_12
  6
CONTINUOUS
 62
     7
100
AcDbLine
 10
169.6582287884
 20
87.1835850697
 30
0.0
 11
169.7509338867
 21
87.1835850697
 31
0.0
  0
LINE
  5
20A
330
3C
100
AcDbEntity
  8
アジャスター_大昌H150_12
  6
CONTINUOUS
 62
     7
100
AcDbLine
 10
169.6582287884
 20
87.9835850697
 30
0.0
 11
169.6582287884
 21
87.1835850697
 31
0.0
  0
LINE
  5
20B
330
3C
100
AcDbEntity
  8
アジャスター_大昌H150_12
  6
CONTINUOUS
 62
     7
100
AcDbLine
 10
169.7509338867
 20
87.9835850697
 30
0.0
 11
169.7509338867
 21
87.1835850697
 31
0.0
  0
LINE
  5
20C
330
3C
100
AcDbEntity
  8
アジャスター_大昌H150_12
  6
CONTINUOUS
 62
     7
100
AcDbLine
 10
169.6582287884
 20
87.9835850697
 30
0.0
 11
169.7509338867
 21
87.9835850697
 31
0.0
  0
LINE
  5
20D
330
3C
100
AcDbEntity
  8
アジャスター_大昌H150_12
  6
CONTINUOUS
 62
     7
100
AcDbLine
 10
169.3962709934
 20
87.9835850697
 30
0.0
 11
169.3962709934
 21
87.1835850697
 31
0.0
  0
LINE
  5
20E
330
3C
100
AcDbEntity
  8
アジャスター_大昌H150_12
  6
CONTINUOUS
 62
     7
100
AcDbLine
 10
169.343818835
 20
87.1835850697
 30
0.0
 11
169.5201544107
 21
87.1835850697
 31
0.0
  0
LINE
  5
20F
330
3C
100
AcDbEntity
  8
アジャスター_大昌H150_12
  6
CONTINUOUS
 62
     7
100
AcDbLine
 10
169.343818835
 20
87.9835850697
 30
0.0
 11
169.343818835
 21
87.1835850697
 31
0.0
  0
LINE
  5
210
330
3C
100
AcDbEntity
  8
アジャスター_大昌H150_12
  6
CONTINUOUS
 62
     7
100
AcDbLine
 10
169.5201544107
 20
87.9835850697
 30
0.0
 11
169.5201544107
 21
87.1835850697
 31
0.0
  0
LINE
  5
211
330
3C
100
AcDbEntity
  8
アジャスター_大昌H150_12
  6
CONTINUOUS
 62
     7
100
AcDbLine
 10
169.343818835
 20
87.9835850697
 30
0.0
 11
169.5201544107
 21
87.9835850697
 31
0.0
  0
LINE
  5
212
330
3C
100
AcDbEntity
  8
アジャスター_大昌H150_12
  6
CONTINUOUS
 62
     7
100
AcDbLine
 10
168.981461477
 20
87.9835850697
 30
0.0
 11
168.981461477
 21
87.1835850697
 31
0.0
  0
LINE
  5
213
330
3C
100
AcDbEntity
  8
アジャスター_大昌H150_12
  6
CONTINUOUS
 62
     7
100
AcDbLine
 10
168.8860578515
 20
87.1835850697
 30
0.0
 11
169.1287629499
 21
87.1835850697
 31
0.0
  0
LINE
  5
214
330
3C
100
AcDbEntity
  8
アジャスター_大昌H150_12
  6
CONTINUOUS
 62
     7
100
AcDbLine
 10
168.8860578515
 20
87.9835850697
 30
0.0
 11
168.8860578515
 21
87.1835850697
 31
0.0
  0
LINE
  5
215
330
3C
100
AcDbEntity
  8
アジャスター_大昌H150_12
  6
CONTINUOUS
 62
     7
100
AcDbLine
 10
169.1287629499
 20
87.9835850697
 30
0.0
 11
169.1287629499
 21
87.1835850697
 31
0.0
  0
LINE
  5
216
330
3C
100
AcDbEntity
  8
アジャスター_大昌H150_12
  6
CONTINUOUS
 62
     7
100
AcDbLine
 10
168.8860578515
 20
87.9835850697
 30
0.0
 11
169.1287629499
 21
87.9835850697
 31
0.0
  0
LINE
  5
217
330
3C
100
AcDbEntity
  8
アジャスター_大昌H150_12
  6
CONTINUOUS
 62
     7
100
AcDbLine
 10
168.4587709934
 20
87.9835850697
 30
0.0
 11
168.4587709934
 21
87.1835850697
 31
0.0
  0
LINE
  5
218
330
3C
100
AcDbEntity
  8
アジャスター_大昌H150_12
  6
CONTINUOUS
 62
     7
100
AcDbLine
 10
168.3297546725
 20
87.1835850697
 30
0.0
 11
168.6150716273
 21
87.1835850697
 31
0.0
  0
LINE
  5
219
330
3C
100
AcDbEntity
  8
アジャスター_大昌H150_12
  6
CONTINUOUS
 62
     7
100
AcDbLine
 10
168.3297546725
 20
87.9835850697
 30
0.0
 11
168.3297546725
 21
87.1835850697
 31
0.0
  0
LINE
  5
21A
330
3C
100
AcDbEntity
  8
アジャスター_大昌H150_12
  6
CONTINUOUS
 62
     7
100
AcDbLine
 10
168.6150716273
 20
87.9835850697
 30
0.0
 11
168.6150716273
 21
87.1835850697
 31
0.0
  0
LINE
  5
21B
330
3C
100
AcDbEntity
  8
アジャスター_大昌H150_12
  6
CONTINUOUS
 62
     7
100
AcDbLine
 10
168.3297546725
 20
87.9835850697
 30
0.0
 11
168.6150716273
 21
87.9835850697
 31
0.0
  0
LINE
  5
21C
330
3C
100
AcDbEntity
  8
アジャスター_大昌H150_12
  6
CONTINUOUS
 62
     7
100
AcDbLine
 10
167.8793641289
 20
87.9835850697
 30
0.0
 11
167.8793641289
 21
87.1835850697
 31
0.0
  0
LINE
  5
21D
330
3C
100
AcDbEntity
  8
アジャスター_大昌H150_12
  6
CONTINUOUS
 62
     7
100
AcDbLine
 10
167.7293641289
 20
87.1835850697
 30
0.0
 11
168.0293641289
 21
87.1835850697
 31
0.0
  0
LINE
  5
21E
330
3C
100
AcDbEntity
  8
アジャスター_大昌H150_12
  6
CONTINUOUS
 62
     7
100
AcDbLine
 10
167.7293641289
 20
87.9835850697
 30
0.0
 11
167.7293641289
 21
87.1835850697
 31
0.0
  0
LINE
  5
21F
330
3C
100
AcDbEntity
  8
アジャスター_大昌H150_12
  6
CONTINUOUS
 62
     7
100
AcDbLine
 10
168.0293641289
 20
87.9835850697
 30
0.0
 11
168.0293641289
 21
87.1835850697
 31
0.0
  0
LINE
  5
220
330
3C
100
AcDbEntity
  8
アジャスター_大昌H150_12
  6
CONTINUOUS
 62
     7
100
AcDbLine
 10
167.7293641289
 20
87.9835850697
 30
0.0
 11
168.0293641289
 21
87.9835850697
 31
0.0
  0
LINE
  5
221
330
3C
100
AcDbEntity
  8
アジャスター_大昌H150_12
  6
CONTINUOUS
 62
     7
100
AcDbLine
 10
167.2999572645
 20
87.9835850697
 30
0.0
 11
167.2999572645
 21
87.1835850697
 31
0.0
  0
LINE
  5
222
330
3C
100
AcDbEntity
  8
アジャスター_大昌H150_12
  6
CONTINUOUS
 62
     7
100
AcDbLine
 10
167.1436566305
 20
87.1835850697
 30
0.0
 11
167.4289735854
 21
87.1835850697
 31
0.0
  0
LINE
  5
223
330
3C
100
AcDbEntity
  8
アジャスター_大昌H150_12
  6
CONTINUOUS
 62
     7
100
AcDbLine
 10
167.1436566305
 20
87.9835850697
 30
0.0
 11
167.1436566305
 21
87.1835850697
 31
0.0
  0
LINE
  5
224
330
3C
100
AcDbEntity
  8
アジャスター_大昌H150_12
  6
CONTINUOUS
 62
     7
100
AcDbLine
 10
167.4289735854
 20
87.9835850697
 30
0.0
 11
167.4289735854
 21
87.1835850697
 31
0.0
  0
LINE
  5
225
330
3C
100
AcDbEntity
  8
アジャスター_大昌H150_12
  6
CONTINUOUS
 62
     7
100
AcDbLine
 10
167.1436566305
 20
87.9835850697
 30
0.0
 11
167.4289735854
 21
87.9835850697
 31
0.0
  0
LINE
  5
226
330
3C
100
AcDbEntity
  8
アジャスター_大昌H150_12
  6
CONTINUOUS
 62
     7
100
AcDbLine
 10
166.7772667809
 20
87.9835850697
 30
0.0
 11
166.7772667809
 21
87.1835850697
 31
0.0
  0
LINE
  5
227
330
3C
100
AcDbEntity
  8
アジャスター_大昌H150_12
  6
CONTINUOUS
 62
     7
100
AcDbLine
 10
166.629965308
 20
87.1835850697
 30
0.0
 11
166.8726704063
 21
87.1835850697
 31
0.0
  0
LINE
  5
228
330
3C
100
AcDbEntity
  8
アジャスター_大昌H150_12
  6
CONTINUOUS
 62
     7
100
AcDbLine
 10
166.629965308
 20
87.9835850697
 30
0.0
 11
166.629965308
 21
87.1835850697
 31
0.0
  0
LINE
  5
229
330
3C
100
AcDbEntity
  8
アジャスター_大昌H150_12
  6
CONTINUOUS
 62
     7
100
AcDbLine
 10
166.8726704063
 20
87.9835850697
 30
0.0
 11
166.8726704063
 21
87.1835850697
 31
0.0
  0
LINE
  5
22A
330
3C
100
AcDbEntity
  8
アジャスター_大昌H150_12
  6
CONTINUOUS
 62
     7
100
AcDbLine
 10
166.629965308
 20
87.9835850697
 30
0.0
 11
166.8726704063
 21
87.9835850697
 31
0.0
  0
LINE
  5
22B
330
3C
100
AcDbEntity
  8
アジャスター_大昌H150_12
  6
CONTINUOUS
 62
     7
100
AcDbLine
 10
166.3624572645
 20
87.9835850697
 30
0.0
 11
166.3624572645
 21
87.1835850697
 31
0.0
  0
LINE
  5
22C
330
3C
100
AcDbEntity
  8
アジャスター_大昌H150_12
  6
CONTINUOUS
 62
     7
100
AcDbLine
 10
166.2385738471
 20
87.1835850697
 30
0.0
 11
166.4149094228
 21
87.1835850697
 31
0.0
  0
LINE
  5
22D
330
3C
100
AcDbEntity
  8
アジャスター_大昌H150_12
  6
CONTINUOUS
 62
     7
100
AcDbLine
 10
166.2385738471
 20
87.9835850697
 30
0.0
 11
166.2385738471
 21
87.1835850697
 31
0.0
  0
LINE
  5
22E
330
3C
100
AcDbEntity
  8
アジャスター_大昌H150_12
  6
CONTINUOUS
 62
     7
100
AcDbLine
 10
166.4149094228
 20
87.9835850697
 30
0.0
 11
166.4149094228
 21
87.1835850697
 31
0.0
  0
LINE
  5
22F
330
3C
100
AcDbEntity
  8
アジャスター_大昌H150_12
  6
CONTINUOUS
 62
     7
100
AcDbLine
 10
166.2385738471
 20
87.9835850697
 30
0.0
 11
166.4149094228
 21
87.9835850697
 31
0.0
  0
LINE
  5
230
330
3C
100
AcDbEntity
  8
アジャスター_大昌H150_12
  6
CONTINUOUS
 62
     7
100
AcDbLine
 10
166.0961331609
 20
87.9835850697
 30
0.0
 11
166.0961331609
 21
87.1835850697
 31
0.0
  0
LINE
  5
231
330
3C
100
AcDbEntity
  8
アジャスター_大昌H150_12
  6
CONTINUOUS
 62
     7
100
AcDbLine
 10
166.0077943711
 20
87.1835850697
 30
0.0
 11
166.1004994694
 21
87.1835850697
 31
0.0
  0
LINE
  5
232
330
3C
100
AcDbEntity
  8
アジャスター_大昌H150_12
  6
CONTINUOUS
 62
     7
100
AcDbLine
 10
166.0077943711
 20
87.9835850697
 30
0.0
 11
166.0077943711
 21
87.1835850697
 31
0.0
  0
LINE
  5
233
330
3C
100
AcDbEntity
  8
アジャスター_大昌H150_12
  6
CONTINUOUS
 62
     7
100
AcDbLine
 10
166.1004994694
 20
87.9835850697
 30
0.0
 11
166.1004994694
 21
87.1835850697
 31
0.0
  0
LINE
  5
234
330
3C
100
AcDbEntity
  8
アジャスター_大昌H150_12
  6
CONTINUOUS
 62
     7
100
AcDbLine
 10
166.0077943711
 20
87.9835850697
 30
0.0
 11
166.1004994694
 21
87.9835850697
 31
0.0
  0
LINE
  5
235
330
3C
100
AcDbEntity
  8
アジャスター_大昌H150_12
  6
CONTINUOUS
 62
     7
100
AcDbLine
 10
165.960217183
 20
87.1835850697
 30
0.0
 11
165.9543641289
 21
87.1835850697
 31
0.0
  0
LINE
  5
236
330
3C
100
AcDbEntity
  8
アジャスター_大昌H150_12
  6
CONTINUOUS
 62
     7
100
AcDbLine
 10
165.960217183
 20
87.9835850697
 30
0.0
 11
165.960217183
 21
87.1835850697
 31
0.0
  0
LINE
  5
237
330
3C
100
AcDbEntity
  8
アジャスター_大昌H150_12
  6
CONTINUOUS
 62
     7
100
AcDbLine
 10
165.960217183
 20
87.9835850697
 30
0.0
 11
165.9543641289
 21
87.9835850697
 31
0.0
  0
LINE
  5
238
330
3C
100
AcDbEntity
  8
アジャスター_大昌H150_12
  6
CONTINUOUS
 62
     7
100
AcDbLine
 10
168.3793641289
 20
88.0835850697
 30
0.0
 11
168.3793641289
 21
89.1335850697
 31
0.0
  0
LINE
  5
239
330
3C
100
AcDbEntity
  8
アジャスター_大昌H150_12
  6
CONTINUOUS
 62
     7
100
AcDbLine
 10
167.3793641289
 20
89.1335850697
 30
0.0
 11
167.3793641289
 21
88.0835850697
 31
0.0
  0
ARC
  5
23A
330
3C
100
AcDbEntity
  8
アジャスター_大昌H150_12
  6
CONTINUOUS
 62
     7
100
AcDbCircle
 10
166.0543641289
 20
87.1835850697
 30
0.0
 40
0.1000000000000001
100
AcDbArc
 50
180.0
 51
270.0
  0
ARC
  5
23B
330
3C
100
AcDbEntity
  8
アジャスター_大昌H150_12
  6
CONTINUOUS
 62
     7
100
AcDbCircle
 10
169.7043641289
 20
87.1835850697
 30
0.0
 40
0.1
100
AcDbArc
 50
270.0
 51
0.0
  0
LINE
  5
23C
330
3C
100
AcDbEntity
  8
アジャスター_大昌H150_12
  6
CONTINUOUS
 62
     7
100
AcDbLine
 10
169.8043641289
 20
87.9835850697
 30
0.0
 11
169.8043641289
 21
88.0835850697
 31
0.0
  0
LINE
  5
23D
330
3C
100
AcDbEntity
  8
アジャスター_大昌H150_12
  6
CONTINUOUS
 62
     7
100
AcDbLine
 10
165.9543641289
 20
88.0835850697
 30
0.0
 11
165.9543641289
 21
87.9835850697
 31
0.0
  0
LINE
  5
23F
330
3C
100
AcDbEntity
  8
転点防止金具_前_160803_
  6
CONTINUOUS
 62
     7
100
AcDbLine
 10
86.6293641289
 20
97.3617270264
 30
0.0
 11
83.3293641289
 21
97.3617270264
 31
0.0
  0
LINE
  5
240
330
3C
100
AcDbEntity
  8
転点防止金具_前_160803_
  6
CONTINUOUS
 62
     7
100
AcDbLine
 10
86.6293641289
 20
97.3617270264
 30
0.0
 11
86.6293641289
 21
94.8517026318
 31
0.0
  0
LINE
  5
241
330
3C
100
AcDbEntity
  8
転点防止金具_前_160803_
  6
CONTINUOUS
 62
     7
100
AcDbLine
 10
83.3293641289
 20
97.3617270264
 30
0.0
 11
83.3293641289
 21
94.8517026318
 31
0.0
  0
LINE
  5
242
330
3C
100
AcDbEntity
  8
転点防止金具_前_160803_
  6
CONTINUOUS
 62
     7
100
AcDbLine
 10
86.6293641289
 20
94.3194961319
 30
0.0
 11
86.6293641289
 21
89.7335850697
 31
0.0
  0
LINE
  5
243
330
3C
100
AcDbEntity
  8
転点防止金具_前_160803_
  6
CONTINUOUS
 62
     7
100
AcDbLine
 10
83.3293641289
 20
94.3194961319
 30
0.0
 11
83.3293641289
 21
89.7335850697
 31
0.0
  0
LINE
  5
244
330
3C
100
AcDbEntity
  8
転点防止金具_前_160803_
  6
CONTINUOUS
 62
     7
100
AcDbLine
 10
86.6293641289
 20
94.3194961319
 30
0.0
 11
86.6293641289
 21
94.8517026318
 31
0.0
  0
LINE
  5
245
330
3C
100
AcDbEntity
  8
転点防止金具_前_160803_
  6
CONTINUOUS
 62
     7
100
AcDbLine
 10
83.3293641289
 20
94.8517026318
 30
0.0
 11
83.3293641289
 21
94.3194961319
 31
0.0
  0
LINE
  5
246
330
3C
100
AcDbEntity
  8
転点防止金具_前_160803_
  6
CONTINUOUS
 62
     7
100
AcDbLine
 10
83.3293641289
 20
89.7335850697
 30
0.0
 11
83.3293641289
 21
89.1335850697
 31
0.0
  0
LINE
  5
247
330
3C
100
AcDbEntity
  8
転点防止金具_前_160803_
  6
CONTINUOUS
 62
     7
100
AcDbLine
 10
86.6293641289
 20
89.7335850697
 30
0.0
 11
86.6293641289
 21
89.1335850697
 31
0.0
  0
LINE
  5
248
330
3C
100
AcDbEntity
  8
転点防止金具_前_160803_
  6
CONTINUOUS
 62
     7
100
AcDbLine
 10
83.3293641289
 20
89.1335850697
 30
0.0
 11
84.1793641289
 21
89.1335850697
 31
0.0
  0
LINE
  5
249
330
3C
100
AcDbEntity
  8
転点防止金具_前_160803_
  6
CONTINUOUS
 62
     7
100
AcDbLine
 10
83.3293641289
 20
97.8236667927
 30
0.0
 11
83.3293641289
 21
97.3617270264
 31
0.0
  0
LINE
  5
24A
330
3C
100
AcDbEntity
  8
転点防止金具_前_160803_
  6
CONTINUOUS
 62
     7
100
AcDbLine
 10
83.2793641289
 20
97.8236667927
 30
0.0
 11
83.3293641289
 21
97.8236667927
 31
0.0
  0
LINE
  5
24B
330
3C
100
AcDbEntity
  8
転点防止金具_前_160803_
  6
CONTINUOUS
 62
     7
100
AcDbLine
 10
83.2793641289
 20
97.5940567333
 30
0.0
 11
83.3293641289
 21
97.5940567333
 31
0.0
  0
ELLIPSE
  5
24C
330
3C
100
AcDbEntity
  8
転点防止金具_前_160803_
  6
CONTINUOUS
 62
     7
100
AcDbEllipse
 10
83.2793641289
 20
97.5940567333
 30
0.0
 11
0.6000000000000006
 21
-2.775557561562891E-15
 31
0.0
210
0.0
220
0.0
230
1.0
 40
0.3826834324
 41
1.570796326794922
 42
3.141592653589805
  0
LINE
  5
24D
330
3C
100
AcDbEntity
  8
転点防止金具_前_160803_
  6
CONTINUOUS
 62
     7
100
AcDbLine
 10
82.6793641289
 20
97.5940567333
 30
0.0
 11
82.6793641289
 21
97.9164948978
 31
0.0
  0
LINE
  5
24E
330
3C
100
AcDbEntity
  8
転点防止金具_前_160803_
  6
CONTINUOUS
 62
     7
100
AcDbLine
 10
84.9793641289
 20
89.1335850697
 30
0.0
 11
86.6293641289
 21
89.1335850697
 31
0.0
  0
LINE
  5
24F
330
3C
100
AcDbEntity
  8
転点防止金具_前_160803_
  6
CONTINUOUS
 62
     7
100
AcDbLine
 10
84.1793641289
 20
89.1335850697
 30
0.0
 11
84.1793641289
 21
89.7335850697
 31
0.0
  0
LINE
  5
250
330
3C
100
AcDbEntity
  8
転点防止金具_前_160803_
  6
CONTINUOUS
 62
     7
100
AcDbLine
 10
84.9793641289
 20
89.7335850697
 30
0.0
 11
84.9793641289
 21
89.1335850697
 31
0.0
  0
LINE
  5
251
330
3C
100
AcDbEntity
  8
転点防止金具_前_160803_
  6
CONTINUOUS
 62
     7
100
AcDbLine
 10
84.1793641289
 20
89.8335850697
 30
0.0
 11
84.1793641289
 21
89.7335850697
 31
0.0
  0
LINE
  5
252
330
3C
100
AcDbEntity
  8
転点防止金具_前_160803_
  6
CONTINUOUS
 62
     7
100
AcDbLine
 10
84.9793641289
 20
89.7335850697
 30
0.0
 11
84.9793641289
 21
89.8335850697
 31
0.0
  0
ARC
  5
253
330
3C
100
AcDbEntity
  8
転点防止金具_前_160803_
  6
CONTINUOUS
 62
     7
100
AcDbCircle
 10
84.5793641289
 20
89.8335850697
 30
0.0
 40
0.4000000000000004
100
AcDbArc
 50
0.0
 51
180.0
  0
LINE
  5
254
330
3C
100
AcDbEntity
  8
転点防止金具_前_160803_
  6
CONTINUOUS
 62
     7
100
AcDbLine
 10
84.1793641289
 20
89.7335850697
 30
0.0
 11
84.9793641289
 21
89.7335850697
 31
0.0
  0
LINE
  5
255
330
3C
100
AcDbEntity
  8
転点防止金具_前_160803_
  6
CONTINUOUS
 62
     7
100
AcDbLine
 10
84.1793641289
 20
89.1335850697
 30
0.0
 11
84.9793641289
 21
89.1335850697
 31
0.0
  0
LINE
  5
256
330
3C
100
AcDbEntity
  8
転点防止金具_前_160803_
  6
CONTINUOUS
 62
     7
100
AcDbLine
 10
86.6293641289
 20
97.9147882458
 30
0.0
 11
86.6293641289
 21
97.3617270264
 31
0.0
  0
LINE
  5
257
330
3C
100
AcDbEntity
  8
転点防止金具_前_160803_
  6
CONTINUOUS
 62
     7
100
AcDbLine
 10
83.2793641289
 20
96.9817632415
 30
0.0
 11
83.2793641289
 21
97.5940567333
 31
0.0
  0
LINE
  5
258
330
3C
100
AcDbEntity
  8
転点防止金具_前_160803_
  6
CONTINUOUS
 62
     7
100
AcDbLine
 10
82.6793641289
 20
96.9817632415
 30
0.0
 11
82.6793641289
 21
97.5940567333
 31
0.0
  0
LINE
  5
259
330
3C
100
AcDbEntity
  8
転点防止金具_前_160803_
  6
CONTINUOUS
 62
     7
100
AcDbLine
 10
83.2793641289
 20
96.966539148
 30
0.0
 11
83.2793641289
 21
96.9817632415
 31
0.0
  0
LINE
  5
25A
330
3C
100
AcDbEntity
  8
転点防止金具_前_160803_
  6
CONTINUOUS
 62
     7
100
AcDbLine
 10
82.6793641289
 20
96.9817632415
 30
0.0
 11
82.6793641289
 21
96.966539148
 31
0.0
  0
LINE
  5
25B
330
3C
100
AcDbEntity
  8
転点防止金具_前_160803_
  6
CONTINUOUS
 62
     7
100
AcDbLine
 10
82.6793641289
 20
96.966539148
 30
0.0
 11
83.2793641289
 21
96.966539148
 31
0.0
  0
LINE
  5
25D
330
3C
100
AcDbEntity
  8
回転軸140327_0
  6
CONTINUOUS
 62
     7
100
AcDbLine
 10
87.2593641289
 20
101.4608209578
 30
0.0
 11
87.2593641289
 21
102.7608209578
 31
0.0
  0
LINE
  5
25E
330
3C
100
AcDbEntity
  8
回転軸140327_0
  6
CONTINUOUS
 62
     7
100
AcDbLine
 10
87.2093641289
 20
102.8108209578
 30
0.0
 11
87.2093641289
 21
101.4108209578
 31
0.0
  0
LINE
  5
25F
330
3C
100
AcDbEntity
  8
回転軸140327_0
  6
CONTINUOUS
 62
     7
100
AcDbLine
 10
86.9593641289
 20
101.4108209578
 30
0.0
 11
87.2093641289
 21
101.4108209578
 31
0.0
  0
LINE
  5
260
330
3C
100
AcDbEntity
  8
回転軸140327_0
  6
CONTINUOUS
 62
     7
100
AcDbLine
 10
87.2093641289
 20
102.8108209578
 30
0.0
 11
86.9593641289
 21
102.8108209578
 31
0.0
  0
LINE
  5
261
330
3C
100
AcDbEntity
  8
回転軸140327_0
  6
CONTINUOUS
 62
     7
100
AcDbLine
 10
87.2093641289
 20
101.4108209578
 30
0.0
 11
87.2593641289
 21
101.4608209578
 31
0.0
  0
LINE
  5
262
330
3C
100
AcDbEntity
  8
回転軸140327_0
  6
CONTINUOUS
 62
     7
100
AcDbLine
 10
87.2593641289
 20
102.7608209578
 30
0.0
 11
87.2093641289
 21
102.8108209578
 31
0.0
  0
LINE
  5
263
330
3C
100
AcDbEntity
  8
回転軸140327_0
  6
CONTINUOUS
 62
     7
100
AcDbLine
 10
165.1993641289
 20
102.7608209578
 30
0.0
 11
165.1993641289
 21
101.4608209578
 31
0.0
  0
LINE
  5
264
330
3C
100
AcDbEntity
  8
回転軸140327_0
  6
CONTINUOUS
 62
     7
100
AcDbLine
 10
165.2493641289
 20
101.4108209578
 30
0.0
 11
165.2493641289
 21
102.8108209578
 31
0.0
  0
LINE
  5
265
330
3C
100
AcDbEntity
  8
回転軸140327_0
  6
CONTINUOUS
 62
     7
100
AcDbLine
 10
165.4993641289
 20
102.8108209578
 30
0.0
 11
165.2493641289
 21
102.8108209578
 31
0.0
  0
LINE
  5
266
330
3C
100
AcDbEntity
  8
回転軸140327_0
  6
CONTINUOUS
 62
     7
100
AcDbLine
 10
165.2493641289
 20
101.4108209578
 30
0.0
 11
165.4993641289
 21
101.4108209578
 31
0.0
  0
LINE
  5
267
330
3C
100
AcDbEntity
  8
回転軸140327_0
  6
CONTINUOUS
 62
     7
100
AcDbLine
 10
165.2493641289
 20
102.8108209578
 30
0.0
 11
165.1993641289
 21
102.7608209578
 31
0.0
  0
LINE
  5
268
330
3C
100
AcDbEntity
  8
回転軸140327_0
  6
CONTINUOUS
 62
     7
100
AcDbLine
 10
165.1993641289
 20
101.4608209578
 30
0.0
 11
165.2493641289
 21
101.4108209578
 31
0.0
  0
LINE
  5
26A
330
3C
100
AcDbEntity
  8
スクリベット5102_10031
  6
CONTINUOUS
 62
     7
100
AcDbLine
 10
86.9093641289
 20
106.0031048585
 30
0.0
 11
86.9093641289
 21
104.6031048585
 31
0.0
  0
ELLIPSE
  5
26B
330
3C
100
AcDbEntity
  8
スクリベット5102_10031
  6
CONTINUOUS
 62
     7
100
AcDbEllipse
 10
86.0716989917
 20
105.3031048587
 30
0.0
 11
-7.337269680718349E-9
 21
1.100481472362888
 31
0.0
210
0.0
220
0.0
230
1.0
 40
0.9848077523
 41
4.823205766364076
 42
4.874362209526431
  0
ARC
  5
26C
330
3C
100
AcDbEntity
  8
スクリベット5102_10031
  6
CONTINUOUS
 62
     7
100
AcDbCircle
 10
86.0161376957
 20
105.3031048585
 30
0.0
 40
1.121712817376348
100
AcDbArc
 50
357.4774082831
 51
2.5225917169
  0
SPLINE
  5
26D
330
3C
100
AcDbEntity
  8
スクリベット5102_10031
  6
CONTINUOUS
 62
     7
100
AcDbSpline
210
0.0
220
0.0
230
1.0
 70
     8
 71
     3
 72
    10
 73
     6
 74
     0
 42
0.0000002344868897
 43
0.0000000001
 40
0.0
 40
0.0
 40
0.0
 40
0.0
 40
0.5
 40
0.5
 40
1.0
 40
1.0
 40
1.0
 40
1.0
 10
87.13676351148789
 20
105.2537345661598
 30
0.0
 10
87.13629750400614
 20
105.2431569497431
 30
0.0
 10
87.13651044881463
 20
105.2327714434067
 30
0.0
 10
87.13816277153796
 20
105.2177076687553
 30
0.0
 10
87.13959435489413
 20
105.2131169764365
 30
0.0
 10
87.14127629549131
 20
105.2128204049293
 30
0.0
  0
SPLINE
  5
26E
330
3C
100
AcDbEntity
  8
スクリベット5102_10031
  6
CONTINUOUS
 62
     7
100
AcDbSpline
210
0.0
220
0.0
230
1.0
 70
     8
 71
     3
 72
    10
 73
     6
 74
     0
 42
0.0000003235086369
 43
0.0000000001
 40
0.0
 40
0.0
 40
0.0
 40
0.0
 40
0.4999999999999996
 40
0.4999999999999996
 40
1.0
 40
1.0
 40
1.0
 40
1.0
 10
87.1488139853486
 20
105.1814024800957
 30
0.0
 10
87.14967647613635
 20
105.1892732017441
 30
0.0
 10
87.15016568828459
 20
105.1969692182528
 30
0.0
 10
87.15016483116483
 20
105.208034919676
 30
0.0
 10
87.14967646384972
 20
105.2113392286052
 30
0.0
 10
87.1488139853486
 20
105.2114913068352
 30
0.0
  0
ELLIPSE
  5
26F
330
3C
100
AcDbEntity
  8
スクリベット5102_10031
  6
CONTINUOUS
 62
     7
100
AcDbEllipse
 10
86.0716989898
 20
105.3031048585
 30
0.0
 11
3.160804951107821E-10
 21
-1.100481473337594
 31
0.0
210
0.0
220
0.0
230
1.0
 40
0.9848077532
 41
1.408823090709099
 42
1.459979533826765
  0
ARC
  5
270
330
3C
100
AcDbEntity
  8
スクリベット5102_10031
  6
CONTINUOUS
 62
     7
100
AcDbCircle
 10
87.3538993829
 20
105.081313169
 30
0.0
 40
0.2171934041124857
100
AcDbArc
 50
168.2252423993
 51
178.6811927476
  0
ELLIPSE
  5
271
330
3C
100
AcDbEntity
  8
スクリベット5102_10031
  6
CONTINUOUS
 62
     7
100
AcDbEllipse
 10
87.1290049382
 20
105.2131494707
 30
0.0
 11
0.003472963553502463
 21
0.0196961550602226
 31
0.0
210
0.0
220
0.0
230
1.0
 40
0.9938661003
 41
4.802853940113261
 42
6.04210787001581
  0
LINE
  5
272
330
3C
100
AcDbEntity
  8
スクリベット5102_10031
  6
CONTINUOUS
 62
     7
100
AcDbLine
 10
87.0346319495
 20
105.8131048585
 30
0.0
 11
87.0346319495
 21
104.7931048585
 31
0.0
  0
LINE
  5
273
330
3C
100
AcDbEntity
  8
スクリベット5102_10031
  6
CONTINUOUS
 62
     7
100
AcDbLine
 10
87.0397701366
 20
105.8031048585
 30
0.0
 11
87.0397701366
 21
104.8031048585
 31
0.0
  0
ARC
  5
274
330
3C
100
AcDbEntity
  8
スクリベット5102_10031
  6
CONTINUOUS
 62
     7
100
AcDbCircle
 10
86.0543641289
 20
105.3031048585
 30
0.0
 40
1.105
100
AcDbArc
 50
27.4864262504
 51
39.3076481161
  0
ARC
  5
275
330
3C
100
AcDbEntity
  8
スクリベット5102_10031
  6
CONTINUOUS
 62
     7
100
AcDbCircle
 10
86.0543641289
 20
105.3031048585
 30
0.0
 40
1.105000000000002
100
AcDbArc
 50
320.6923518839
 51
332.5135737496
  0
LINE
  5
276
330
3C
100
AcDbEntity
  8
スクリベット5102_10031
  6
CONTINUOUS
 62
     7
100
AcDbLine
 10
86.8593641289
 20
104.6031048585
 30
0.0
 11
86.9093641289
 21
104.6031048585
 31
0.0
  0
LINE
  5
277
330
3C
100
AcDbEntity
  8
スクリベット5102_10031
  6
CONTINUOUS
 62
     7
100
AcDbLine
 10
86.9093641289
 20
106.0031048585
 30
0.0
 11
86.8593641289
 21
106.0031048585
 31
0.0
  0
ARC
  5
278
330
3C
100
AcDbEntity
  8
スクリベット5102_10031
  6
CONTINUOUS
 62
     7
100
AcDbCircle
 10
87.1182398838
 20
105.5161620767
 30
0.0
 40
0.0200000000000011
100
AcDbArc
 50
354.8175224393
 51
11.3245383951
  0
SPLINE
  5
279
330
3C
100
AcDbEntity
  8
スクリベット5102_10031
  6
CONTINUOUS
 62
     7
100
AcDbSpline
210
0.0
220
0.0
230
1.0
 70
     8
 71
     3
 72
    12
 73
     8
 74
     0
 42
0.0000002020104314
 43
0.0000000001
 40
0.0
 40
0.0
 40
0.0
 40
0.0
 40
0.0890465567410033
 40
0.2900465495671982
 40
0.4884372344444334
 40
0.6109373492308354
 40
0.6774915954754606
 40
0.6774915954754606
 40
0.6774915954754606
 40
0.6774915954754606
 10
87.14126311788281
 20
105.4812511774903
 30
0.0
 10
87.14089120602281
 20
105.4835304435799
 30
0.0
 10
87.13985219250594
 20
105.4899213676687
 30
0.0
 10
87.13830551851747
 20
105.5009135608476
 30
0.0
 10
87.1372617699247
 20
105.5097234120307
 30
0.0
 10
87.13694599854364
 20
105.5136814988813
 30
0.0
 10
87.13693107045123
 20
105.5144794729767
 30
0.0
 10
87.13693071904041
 20
105.5144669791088
 30
0.0
  0
SPLINE
  5
27A
330
3C
100
AcDbEntity
  8
スクリベット5102_10031
  6
CONTINUOUS
 62
     7
100
AcDbSpline
210
0.0
220
0.0
230
1.0
 70
     8
 71
     3
 72
    15
 73
    11
 74
     0
 42
0.0000001708132453
 43
0.0000000001
 40
0.1238161199988566
 40
0.1238161199988566
 40
0.1238161199988566
 40
0.1238161199988566
 40
0.151816720498118
 40
0.2339956019906795
 40
0.3087384674604509
 40
0.3808737451993719
 40
0.466229532048341
 40
0.6669820502227157
 40
0.866034585301823
 40
1.0
 40
1.0
 40
1.0
 40
1.0
 10
87.14060021601944
 20
105.3766803301596
 30
0.0
 10
87.14111726694998
 20
105.3770542803945
 30
0.0
 10
87.14308499103352
 20
105.3786226520763
 30
0.0
 10
87.14583533326606
 20
105.3816172788483
 30
0.0
 10
87.14813579345085
 20
105.3859131085124
 30
0.0
 10
87.14940443840838
 20
105.3900613973175
 30
0.0
 10
87.15025929068143
 20
105.3954985613662
 30
0.0
 10
87.15045444803484
 20
105.4030206653896
 30
0.0
 10
87.14995089774754
 20
105.4143367082155
 30
0.0
 10
87.1491939308822
 20
105.4214547226271
 30
0.0
 10
87.14883159795092
 20
105.4247845933757
 30
0.0
  0
SPLINE
  5
27B
330
3C
100
AcDbEntity
  8
スクリベット5102_10031
  6
CONTINUOUS
 62
     7
100
AcDbSpline
210
0.0
220
0.0
230
1.0
 70
     8
 71
     3
 72
    12
 73
     8
 74
     0
 42
0.0000002187048574
 43
0.0000000001
 40
0.0
 40
0.0
 40
0.0
 40
0.0
 40
0.0679665707567294
 40
0.2682418097133805
 40
0.4264812101667656
 40
0.5395258693465264
 40
0.6159711598149414
 40
0.6159711598149414
 40
0.6159711598149414
 40
0.6159711598149414
 10
87.13715654601702
 20
105.3542739978827
 30
0.0
 10
87.13707499292454
 20
105.3558770767904
 30
0.0
 10
87.13680482365207
 20
105.3613227578289
 30
0.0
 10
87.13700594830054
 20
105.3703225693983
 30
0.0
 10
87.13759859222272
 20
105.3778996195479
 30
0.0
 10
87.13821459498558
 20
105.3816127726718
 30
0.0
 10
87.13842197471038
 20
105.3823196268688
 30
0.0
 10
87.13842099581906
 20
105.3823155811825
 30
0.0
  0
LINE
  5
27C
330
3C
100
AcDbEntity
  8
スクリベット5102_10031
  6
CONTINUOUS
 62
     7
100
AcDbLine
 10
87.1372061743
 20
105.2530117574
 30
0.0
 11
87.1372363378
 21
105.2537500285
 31
0.0
  0
ARC
  5
27D
330
3C
100
AcDbEntity
  8
スクリベット5102_10031
  6
CONTINUOUS
 62
     7
100
AcDbCircle
 10
87.1182398838
 20
105.0900476402
 30
0.0
 40
0.0200000000000021
100
AcDbArc
 50
348.6754616049
 51
16.9671789399
  0
ARC
  5
27E
330
3C
100
AcDbEntity
  8
スクリベット5102_10031
  6
CONTINUOUS
 62
     7
100
AcDbCircle
 10
86.0543641289
 20
105.3031048585
 30
0.0
 40
1.104999999999999
100
AcDbArc
 50
11.3245383951
 51
26.9034680361
  0
ARC
  5
27F
330
3C
100
AcDbEntity
  8
スクリベット5102_10031
  6
CONTINUOUS
 62
     7
100
AcDbCircle
 10
86.0543641289
 20
105.3031048585
 30
0.0
 40
1.105000000000001
100
AcDbArc
 50
333.0965319639
 51
348.6754616049
  0
LINE
  5
280
330
3C
100
AcDbEntity
  8
スクリベット5102_10031
  6
CONTINUOUS
 62
     7
100
AcDbLine
 10
87.0397701366
 20
105.8031048585
 30
0.0
 11
87.0346319495
 21
105.8031048585
 31
0.0
  0
LINE
  5
281
330
3C
100
AcDbEntity
  8
スクリベット5102_10031
  6
CONTINUOUS
 62
     7
100
AcDbLine
 10
87.0346319495
 20
104.8031048585
 30
0.0
 11
87.0397701366
 21
104.8031048585
 31
0.0
  0
LINE
  5
282
330
3C
100
AcDbEntity
  8
スクリベット5102_10031
  6
CONTINUOUS
 62
     7
100
AcDbLine
 10
165.5493641289
 20
104.6031048585
 30
0.0
 11
165.5493641289
 21
106.0031048585
 31
0.0
  0
ELLIPSE
  5
283
330
3C
100
AcDbEntity
  8
スクリベット5102_10031
  6
CONTINUOUS
 62
     7
100
AcDbEllipse
 10
166.3870292661
 20
105.3031048587
 30
0.0
 11
7.343392560699159E-9
 21
1.100481472348191
 31
0.0
210
0.0
220
0.0
230
1.0
 40
0.9848077523
 41
1.408823097660102
 42
1.459979540823168
  0
SPLINE
  5
284
330
3C
100
AcDbEntity
  8
スクリベット5102_10031
  6
CONTINUOUS
 62
     7
100
AcDbSpline
210
0.0
220
0.0
230
1.0
 70
     8
 71
     3
 72
    10
 73
     6
 74
     0
 42
0.0000003235086369
 43
0.0000000001
 40
0.0
 40
0.0
 40
0.0
 40
0.0
 40
0.4999999999999998
 40
0.4999999999999998
 40
1.0
 40
1.0
 40
1.0
 40
1.0
 10
165.3099142724723
 20
105.424807236832
 30
0.0
 10
165.3090517816845
 20
105.4169365151836
 30
0.0
 10
165.3085625695363
 20
105.4092404986749
 30
0.0
 10
165.3085634266561
 20
105.3981747972517
 30
0.0
 10
165.3090517939712
 20
105.3948704883225
 30
0.0
 10
165.3099142724723
 20
105.3947184100925
 30
0.0
  0
SPLINE
  5
285
330
3C
100
AcDbEntity
  8
スクリベット5102_10031
  6
CONTINUOUS
 62
     7
100
AcDbSpline
210
0.0
220
0.0
230
1.0
 70
     8
 71
     3
 72
    10
 73
     6
 74
     0
 42
0.0000002344868897
 43
0.0000000001
 40
0.0
 40
0.0
 40
0.0
 40
0.0
 40
0.5
 40
0.5
 40
1.0
 40
1.0
 40
1.0
 40
1.0
 10
165.321964746333
 20
105.3524751507679
 30
0.0
 10
165.3224307538148
 20
105.3630527671846
 30
0.0
 10
165.3222178090062
 20
105.373438273521
 30
0.0
 10
165.3205654862829
 20
105.3885020481724
 30
0.0
 10
165.3191339029268
 20
105.3930927404912
 30
0.0
 10
165.3174519623296
 20
105.3933893119984
 30
0.0
  0
ARC
  5
286
330
3C
100
AcDbEntity
  8
スクリベット5102_10031
  6
CONTINUOUS
 62
     7
100
AcDbCircle
 10
166.4425905621
 20
105.3031048585
 30
0.0
 40
1.121712817376281
100
AcDbArc
 50
177.4774082831
 51
182.5225917169
  0
ELLIPSE
  5
287
330
3C
100
AcDbEntity
  8
スクリベット5102_10031
  6
CONTINUOUS
 62
     7
100
AcDbEllipse
 10
166.3870292671
 20
105.3031048584
 30
0.0
 11
2.573391499893774E-9
 21
-1.100481472850054
 31
0.0
210
0.0
220
0.0
230
1.0
 40
0.9848077527
 41
4.823205770694697
 42
4.874362213834981
  0
ELLIPSE
  5
288
330
3C
100
AcDbEntity
  8
スクリベット5102_10031
  6
CONTINUOUS
 62
     7
100
AcDbEllipse
 10
165.3297233196
 20
105.3930602463
 30
0.0
 11
0.00347296355364679
 21
0.01969615506019207
 31
0.0
210
0.0
220
0.0
230
1.0
 40
0.9938661003
 41
1.66126128653152
 42
2.908109647414839
  0
LINE
  5
289
330
3C
100
AcDbEntity
  8
スクリベット5102_10031
  6
CONTINUOUS
 62
     7
100
AcDbLine
 10
165.4240963084
 20
104.7931048585
 30
0.0
 11
165.4240963084
 21
105.8131048585
 31
0.0
  0
LINE
  5
28A
330
3C
100
AcDbEntity
  8
スクリベット5102_10031
  6
CONTINUOUS
 62
     7
100
AcDbLine
 10
165.4189581212
 20
104.8031048585
 30
0.0
 11
165.4189581212
 21
105.8031048585
 31
0.0
  0
ARC
  5
28B
330
3C
100
AcDbEntity
  8
スクリベット5102_10031
  6
CONTINUOUS
 62
     7
100
AcDbCircle
 10
166.4043641289
 20
105.3031048585
 30
0.0
 40
1.105000000000001
100
AcDbArc
 50
140.6923518839
 51
152.5135737496
  0
ARC
  5
28C
330
3C
100
AcDbEntity
  8
スクリベット5102_10031
  6
CONTINUOUS
 62
     7
100
AcDbCircle
 10
166.4043641289
 20
105.3031048585
 30
0.0
 40
1.105000000000001
100
AcDbArc
 50
207.4864262504
 51
219.3076481161
  0
LINE
  5
28D
330
3C
100
AcDbEntity
  8
スクリベット5102_10031
  6
CONTINUOUS
 62
     7
100
AcDbLine
 10
165.5993641289
 20
106.0031048585
 30
0.0
 11
165.5493641289
 21
106.0031048585
 31
0.0
  0
LINE
  5
28E
330
3C
100
AcDbEntity
  8
スクリベット5102_10031
  6
CONTINUOUS
 62
     7
100
AcDbLine
 10
165.5493641289
 20
104.6031048585
 30
0.0
 11
165.5993641289
 21
104.6031048585
 31
0.0
  0
ARC
  5
28F
330
3C
100
AcDbEntity
  8
スクリベット5102_10031
  6
CONTINUOUS
 62
     7
100
AcDbCircle
 10
165.3404883741
 20
105.5161620767
 30
0.0
 40
0.0200000000000016
100
AcDbArc
 50
168.6754616049
 51
197.4456281393
  0
SPLINE
  5
290
330
3C
100
AcDbEntity
  8
スクリベット5102_10031
  6
CONTINUOUS
 62
     7
100
AcDbSpline
210
0.0
220
0.0
230
1.0
 70
     8
 71
     3
 72
    13
 73
     9
 74
     0
 42
0.0000001930314846
 43
0.0000000001
 40
0.3205199328253062
 40
0.3205199328253062
 40
0.3205199328253062
 40
0.3205199328253062
 40
0.3703634832798867
 40
0.454132240717641
 40
0.5845043995183734
 40
0.7543250588969533
 40
0.9429231006773573
 40
1.0
 40
1.0
 40
1.0
 40
1.0
 10
165.321797502155
 20
105.5144443073392
 30
0.0
 10
165.3217974033241
 20
105.5144453770859
 30
0.0
 10
165.3217907412916
 20
105.5140155820819
 30
0.0
 10
165.3216354166595
 20
105.5116983809506
 30
0.0
 10
165.3210769551673
 20
105.5062443721395
 30
0.0
 10
165.319846322352
 20
105.4967280321244
 30
0.0
 10
165.3183752598964
 20
105.4866199771035
 30
0.0
 10
165.3174478409103
 20
105.4810618008038
 30
0.0
 10
165.3171972217345
 20
105.4795631190523
 30
0.0
  0
LINE
  5
291
330
3C
100
AcDbEntity
  8
スクリベット5102_10031
  6
CONTINUOUS
 62
     7
100
AcDbLine
 10
165.3215220835
 20
105.3531979595
 30
0.0
 11
165.3214919156
 21
105.3524595793
 31
0.0
  0
SPLINE
  5
292
330
3C
100
AcDbEntity
  8
スクリベット5102_10031
  6
CONTINUOUS
 62
     7
100
AcDbSpline
210
0.0
220
0.0
230
1.0
 70
     8
 71
     3
 72
    12
 73
     8
 74
     0
 42
0.0000002187048574
 43
0.0000000001
 40
0.0
 40
0.0
 40
0.0
 40
0.0
 40
0.0679665707570952
 40
0.2682418097138468
 40
0.4264812101673667
 40
0.5395258693470788
 40
0.6159711598152697
 40
0.6159711598152697
 40
0.6159711598152697
 40
0.6159711598152697
 10
165.3215717118039
 20
105.251935719045
 30
0.0
 10
165.3216532648963
 20
105.2503326401373
 30
0.0
 10
165.3219234341688
 20
105.2448869590988
 30
0.0
 10
165.3217223095204
 20
105.2358871475294
 30
0.0
 10
165.3211296655981
 20
105.2283100973798
 30
0.0
 10
165.3205136628354
 20
105.2245969442559
 30
0.0
 10
165.3203062831105
 20
105.2238900900588
 30
0.0
 10
165.3203072620018
 20
105.2238941357452
 30
0.0
  0
SPLINE
  5
293
330
3C
100
AcDbEntity
  8
スクリベット5102_10031
  6
CONTINUOUS
 62
     7
100
AcDbSpline
210
0.0
220
0.0
230
1.0
 70
     8
 71
     3
 72
    14
 73
    10
 74
     0
 42
0.0000001729437714
 43
0.0000000001
 40
0.1977173442530998
 40
0.1977173442530998
 40
0.1977173442530998
 40
0.1977173442530998
 40
0.2354179061599881
 40
0.310024638165728
 40
0.3820285317892825
 40
0.4672288552513492
 40
0.6676157313613793
 40
0.8663057206503022
 40
1.0
 40
1.0
 40
1.0
 40
1.0
 10
165.3145180669054
 20
105.226278329867
 30
0.0
 10
165.3139664676379
 20
105.2256634543525
 30
0.0
 10
165.3124469556388
 20
105.2237592397138
 30
0.0
 10
165.3105924501859
 20
105.2202967131054
 30
0.0
 10
165.3093238238779
 20
105.2161482870624
 30
0.0
 10
165.308468963468
 20
105.2107111795072
 30
0.0
 10
165.3082738151088
 20
105.2031890424748
 30
0.0
 10
165.3087773212939
 20
105.1918735882839
 30
0.0
 10
165.3095342217577
 20
105.1847561541336
 30
0.0
 10
165.3098964772922
 20
105.1814269595489
 30
0.0
  0
SPLINE
  5
294
330
3C
100
AcDbEntity
  8
スクリベット5102_10031
  6
CONTINUOUS
 62
     7
100
AcDbSpline
210
0.0
220
0.0
230
1.0
 70
     8
 71
     3
 72
    12
 73
     8
 74
     0
 42
0.0000002016571955
 43
0.0000000001
 40
0.0
 40
0.0
 40
0.0
 40
0.0
 40
0.088890824910623
 40
0.2895392926701404
 40
0.4875830158497968
 40
0.6098688925136104
 40
0.6763067360665787
 40
0.6763067360665787
 40
0.6763067360665787
 40
0.6763067360665787
 10
165.3174651399381
 20
105.1249585394373
 30
0.0
 10
165.3178370517981
 20
105.1226792733479
 30
0.0
 10
165.3188760652608
 20
105.1162883493707
 30
0.0
 10
165.3204227397519
 20
105.1052961551546
 30
0.0
 10
165.3214664865541
 20
105.0964863076667
 30
0.0
 10
165.3217822616618
 20
105.0925282131873
 30
0.0
 10
165.3217971846032
 20
105.0917302497192
 30
0.0
 10
165.3217975379428
 20
105.0917427395435
 30
0.0
  0
ARC
  5
295
330
3C
100
AcDbEntity
  8
スクリベット5102_10031
  6
CONTINUOUS
 62
     7
100
AcDbCircle
 10
165.3404883741
 20
105.0900476402
 30
0.0
 40
0.0199999999999984
100
AcDbArc
 50
174.8175224393
 51
191.3245383951
  0
ARC
  5
296
330
3C
100
AcDbEntity
  8
スクリベット5102_10031
  6
CONTINUOUS
 62
     7
100
AcDbCircle
 10
166.4043641289
 20
105.3031048585
 30
0.0
 40
1.104999999999999
100
AcDbArc
 50
153.0965319639
 51
168.6754616049
  0
ARC
  5
297
330
3C
100
AcDbEntity
  8
スクリベット5102_10031
  6
CONTINUOUS
 62
     7
100
AcDbCircle
 10
166.4043641289
 20
105.3031048585
 30
0.0
 40
1.104999999999999
100
AcDbArc
 50
191.3245383951
 51
206.9034680361
  0
LINE
  5
298
330
3C
100
AcDbEntity
  8
スクリベット5102_10031
  6
CONTINUOUS
 62
     7
100
AcDbLine
 10
165.4189581212
 20
104.8031048585
 30
0.0
 11
165.4240963084
 21
104.8031048585
 31
0.0
  0
LINE
  5
299
330
3C
100
AcDbEntity
  8
スクリベット5102_10031
  6
CONTINUOUS
 62
     7
100
AcDbLine
 10
165.4240963084
 20
105.8031048585
 30
0.0
 11
165.4189581212
 21
105.8031048585
 31
0.0
  0
LINE
  5
29A
330
3C
100
AcDbEntity
  8
スクリベット5102_10031
  6
CONTINUOUS
 62
     7
100
AcDbLine
 10
86.9093641289
 20
171.1366119005
 30
0.0
 11
86.9093641289
 21
169.7366119005
 31
0.0
  0
ELLIPSE
  5
29B
330
3C
100
AcDbEntity
  8
スクリベット5102_10031
  6
CONTINUOUS
 62
     7
100
AcDbEllipse
 10
86.0716989898
 20
170.4366119005
 30
0.0
 11
2.186700820416832E-9
 21
1.100481473338988
 31
0.0
210
0.0
220
0.0
230
1.0
 40
0.9848077531
 41
4.82320577502218
 42
4.874362218140311
  0
ARC
  5
29C
330
3C
100
AcDbEntity
  8
スクリベット5102_10031
  6
CONTINUOUS
 62
     7
100
AcDbCircle
 10
86.0161376957
 20
170.4366119005
 30
0.0
 40
1.121712817376536
100
AcDbArc
 50
357.4774082831
 51
2.5225917169
  0
SPLINE
  5
29D
330
3C
100
AcDbEntity
  8
スクリベット5102_10031
  6
CONTINUOUS
 62
     7
100
AcDbSpline
210
0.0
220
0.0
230
1.0
 70
     8
 71
     3
 72
    10
 73
     6
 74
     0
 42
0.0000002344868897
 43
0.0000000001
 40
0.0
 40
0.0
 40
0.0
 40
0.0
 40
0.5
 40
0.5
 40
1.0
 40
1.0
 40
1.0
 40
1.0
 10
87.13676351148789
 20
170.3872416082055
 30
0.0
 10
87.13629750400614
 20
170.3766639917888
 30
0.0
 10
87.13651044881463
 20
170.3662784854524
 30
0.0
 10
87.13816277153796
 20
170.3512147108009
 30
0.0
 10
87.13959435489413
 20
170.3466240184822
 30
0.0
 10
87.14127629549131
 20
170.3463274469749
 30
0.0
  0
SPLINE
  5
29E
330
3C
100
AcDbEntity
  8
スクリベット5102_10031
  6
CONTINUOUS
 62
     7
100
AcDbSpline
210
0.0
220
0.0
230
1.0
 70
     8
 71
     3
 72
    10
 73
     6
 74
     0
 42
0.0000003235086369
 43
0.0000000001
 40
0.0
 40
0.0
 40
0.0
 40
0.0
 40
0.4999999999999996
 40
0.4999999999999996
 40
1.0
 40
1.0
 40
1.0
 40
1.0
 10
87.1488139853486
 20
170.3149095221414
 30
0.0
 10
87.14967647613635
 20
170.3227802437897
 30
0.0
 10
87.15016568828459
 20
170.3304762602984
 30
0.0
 10
87.15016483116483
 20
170.3415419617217
 30
0.0
 10
87.14967646384972
 20
170.3448462706508
 30
0.0
 10
87.1488139853486
 20
170.3449983488809
 30
0.0
  0
ELLIPSE
  5
29F
330
3C
100
AcDbEntity
  8
スクリベット5102_10031
  6
CONTINUOUS
 62
     7
100
AcDbEllipse
 10
86.0716989898
 20
170.4366119006
 30
0.0
 11
1.876693245250749E-9
 21
-1.100481473347204
 31
0.0
210
0.0
220
0.0
230
1.0
 40
0.9848077532
 41
1.408823089308156
 42
1.459979532425758
  0
ARC
  5
2A0
330
3C
100
AcDbEntity
  8
スクリベット5102_10031
  6
CONTINUOUS
 62
     7
100
AcDbCircle
 10
87.3538993829
 20
170.2148202111
 30
0.0
 40
0.2171934041126255
100
AcDbArc
 50
168.2252423993
 51
178.6811927476
  0
ELLIPSE
  5
2A1
330
3C
100
AcDbEntity
  8
スクリベット5102_10031
  6
CONTINUOUS
 62
     7
100
AcDbEllipse
 10
87.1290049382
 20
170.3466565127
 30
0.0
 11
0.00347296355289739
 21
0.01969615506032252
 31
0.0
210
0.0
220
0.0
230
1.0
 40
0.9938661003
 41
4.802853940082693
 42
6.042107869996697
  0
LINE
  5
2A2
330
3C
100
AcDbEntity
  8
スクリベット5102_10031
  6
CONTINUOUS
 62
     7
100
AcDbLine
 10
87.0346319495
 20
170.9466119005
 30
0.0
 11
87.0346319495
 21
169.9266119005
 31
0.0
  0
LINE
  5
2A3
330
3C
100
AcDbEntity
  8
スクリベット5102_10031
  6
CONTINUOUS
 62
     7
100
AcDbLine
 10
87.0397701366
 20
170.9366119005
 30
0.0
 11
87.0397701366
 21
169.9366119005
 31
0.0
  0
ARC
  5
2A4
330
3C
100
AcDbEntity
  8
スクリベット5102_10031
  6
CONTINUOUS
 62
     7
100
AcDbCircle
 10
86.0543641289
 20
170.4366119005
 30
0.0
 40
1.105000000000002
100
AcDbArc
 50
27.4864262504
 51
39.3076481161
  0
ARC
  5
2A5
330
3C
100
AcDbEntity
  8
スクリベット5102_10031
  6
CONTINUOUS
 62
     7
100
AcDbCircle
 10
86.0543641289
 20
170.4366119005
 30
0.0
 40
1.105000000000001
100
AcDbArc
 50
320.6923518839
 51
332.5135737496
  0
LINE
  5
2A6
330
3C
100
AcDbEntity
  8
スクリベット5102_10031
  6
CONTINUOUS
 62
     7
100
AcDbLine
 10
86.8593641289
 20
169.7366119005
 30
0.0
 11
86.9093641289
 21
169.7366119005
 31
0.0
  0
LINE
  5
2A7
330
3C
100
AcDbEntity
  8
スクリベット5102_10031
  6
CONTINUOUS
 62
     7
100
AcDbLine
 10
86.9093641289
 20
171.1366119005
 30
0.0
 11
86.8593641289
 21
171.1366119005
 31
0.0
  0
ARC
  5
2A8
330
3C
100
AcDbEntity
  8
スクリベット5102_10031
  6
CONTINUOUS
 62
     7
100
AcDbCircle
 10
87.1182398838
 20
170.6496691188
 30
0.0
 40
0.0200000000000011
100
AcDbArc
 50
354.8175224393
 51
11.3245383951
  0
SPLINE
  5
2A9
330
3C
100
AcDbEntity
  8
スクリベット5102_10031
  6
CONTINUOUS
 62
     7
100
AcDbSpline
210
0.0
220
0.0
230
1.0
 70
     8
 71
     3
 72
    12
 73
     8
 74
     0
 42
0.0000002020104314
 43
0.0000000001
 40
0.0
 40
0.0
 40
0.0
 40
0.0
 40
0.0890465567410054
 40
0.2900465495672467
 40
0.4884372344444092
 40
0.6109373492307701
 40
0.6774915954756293
 40
0.6774915954756293
 40
0.6774915954756293
 40
0.6774915954756293
 10
87.14126311788281
 20
170.614758219536
 30
0.0
 10
87.14089120602281
 20
170.6170374856255
 30
0.0
 10
87.13985219250605
 20
170.6234284097143
 30
0.0
 10
87.13830551851734
 20
170.6344206028933
 30
0.0
 10
87.13726176992476
 20
170.6432304540763
 30
0.0
 10
87.13694599854362
 20
170.6471885409268
 30
0.0
 10
87.13693107045123
 20
170.6479865150224
 30
0.0
 10
87.13693071904041
 20
170.6479740211545
 30
0.0
  0
SPLINE
  5
2AA
330
3C
100
AcDbEntity
  8
スクリベット5102_10031
  6
CONTINUOUS
 62
     7
100
AcDbSpline
210
0.0
220
0.0
230
1.0
 70
     8
 71
     3
 72
    15
 73
    11
 74
     0
 42
0.0000001708132453
 43
0.0000000001
 40
0.1238161199987445
 40
0.1238161199987445
 40
0.1238161199987445
 40
0.1238161199987445
 40
0.1518167204981478
 40
0.2339956019907369
 40
0.3087384674604731
 40
0.3808737451994093
 40
0.4662295320483456
 40
0.6669820502227393
 40
0.8660345853019049
 40
1.0
 40
1.0
 40
1.0
 40
1.0
 10
87.14060021601942
 20
170.5101873722053
 30
0.0
 10
87.14111726694998
 20
170.5105613224401
 30
0.0
 10
87.14308499103352
 20
170.512129694122
 30
0.0
 10
87.14583533326606
 20
170.515124320894
 30
0.0
 10
87.14813579345088
 20
170.5194201505579
 30
0.0
 10
87.14940443840835
 20
170.5235684393631
 30
0.0
 10
87.15025929068142
 20
170.5290056034119
 30
0.0
 10
87.15045444803489
 20
170.5365277074351
 30
0.0
 10
87.14995089774752
 20
170.5478437502612
 30
0.0
 10
87.1491939308822
 20
170.5549617646727
 30
0.0
 10
87.14883159795092
 20
170.5582916354213
 30
0.0
  0
SPLINE
  5
2AB
330
3C
100
AcDbEntity
  8
スクリベット5102_10031
  6
CONTINUOUS
 62
     7
100
AcDbSpline
210
0.0
220
0.0
230
1.0
 70
     8
 71
     3
 72
    12
 73
     8
 74
     0
 42
0.0000002187048574
 43
0.0000000001
 40
0.0
 40
0.0
 40
0.0
 40
0.0
 40
0.0679665707566413
 40
0.2682418097134417
 40
0.4264812101668264
 40
0.5395258693465728
 40
0.6159711598150336
 40
0.6159711598150336
 40
0.6159711598150336
 40
0.6159711598150336
 10
87.13715654601702
 20
170.4877810399283
 30
0.0
 10
87.13707499292454
 20
170.489384118836
 30
0.0
 10
87.13680482365207
 20
170.4948297998746
 30
0.0
 10
87.13700594830043
 20
170.503829611444
 30
0.0
 10
87.13759859222282
 20
170.5114066615936
 30
0.0
 10
87.1382145949855
 20
170.5151198147175
 30
0.0
 10
87.13842197471044
 20
170.5158266689145
 30
0.0
 10
87.13842099581912
 20
170.5158226232281
 30
0.0
  0
LINE
  5
2AC
330
3C
100
AcDbEntity
  8
スクリベット5102_10031
  6
CONTINUOUS
 62
     7
100
AcDbLine
 10
87.1372061743
 20
170.3865187995
 30
0.0
 11
87.1372363378
 21
170.3872570705
 31
0.0
  0
ARC
  5
2AD
330
3C
100
AcDbEntity
  8
スクリベット5102_10031
  6
CONTINUOUS
 62
     7
100
AcDbCircle
 10
87.1182398838
 20
170.2235546823
 30
0.0
 40
0.0200000000000021
100
AcDbArc
 50
348.6754616048
 51
16.9671789399
  0
ARC
  5
2AE
330
3C
100
AcDbEntity
  8
スクリベット5102_10031
  6
CONTINUOUS
 62
     7
100
AcDbCircle
 10
86.0543641289
 20
170.4366119005
 30
0.0
 40
1.104999999999999
100
AcDbArc
 50
11.3245383951
 51
26.9034680361
  0
ARC
  5
2AF
330
3C
100
AcDbEntity
  8
スクリベット5102_10031
  6
CONTINUOUS
 62
     7
100
AcDbCircle
 10
86.0543641289
 20
170.4366119005
 30
0.0
 40
1.104999999999999
100
AcDbArc
 50
333.0965319639
 51
348.6754616049
  0
LINE
  5
2B0
330
3C
100
AcDbEntity
  8
スクリベット5102_10031
  6
CONTINUOUS
 62
     7
100
AcDbLine
 10
87.0397701366
 20
170.9366119005
 30
0.0
 11
87.0346319495
 21
170.9366119005
 31
0.0
  0
LINE
  5
2B1
330
3C
100
AcDbEntity
  8
スクリベット5102_10031
  6
CONTINUOUS
 62
     7
100
AcDbLine
 10
87.0346319495
 20
169.9366119005
 30
0.0
 11
87.0397701366
 21
169.9366119005
 31
0.0
  0
LINE
  5
2B2
330
3C
100
AcDbEntity
  8
スクリベット5102_10031
  6
CONTINUOUS
 62
     7
100
AcDbLine
 10
165.5493641289
 20
169.7366119005
 30
0.0
 11
165.5493641289
 21
171.1366119005
 31
0.0
  0
ELLIPSE
  5
2B3
330
3C
100
AcDbEntity
  8
スクリベット5102_10031
  6
CONTINUOUS
 62
     7
100
AcDbEllipse
 10
166.3870292674
 20
170.4366119005
 30
0.0
 11
2.006200761073273E-9
 21
1.100481473051462
 31
0.0
210
0.0
220
0.0
230
1.0
 40
0.9848077529
 41
1.408823092818945
 42
1.459979535949686
  0
SPLINE
  5
2B4
330
3C
100
AcDbEntity
  8
スクリベット5102_10031
  6
CONTINUOUS
 62
     7
100
AcDbSpline
210
0.0
220
0.0
230
1.0
 70
     8
 71
     3
 72
    10
 73
     6
 74
     0
 42
0.0000003235086369
 43
0.0000000001
 40
0.0
 40
0.0
 40
0.0
 40
0.0
 40
0.4999999999999998
 40
0.4999999999999998
 40
1.0
 40
1.0
 40
1.0
 40
1.0
 10
165.3099142724723
 20
170.5583142788776
 30
0.0
 10
165.3090517816845
 20
170.5504435572292
 30
0.0
 10
165.3085625695363
 20
170.5427475407205
 30
0.0
 10
165.3085634266561
 20
170.5316818392972
 30
0.0
 10
165.3090517939712
 20
170.5283775303681
 30
0.0
 10
165.3099142724723
 20
170.5282254521381
 30
0.0
  0
SPLINE
  5
2B5
330
3C
100
AcDbEntity
  8
スクリベット5102_10031
  6
CONTINUOUS
 62
     7
100
AcDbSpline
210
0.0
220
0.0
230
1.0
 70
     8
 71
     3
 72
    10
 73
     6
 74
     0
 42
0.0000002344868897
 43
0.0000000001
 40
0.0
 40
0.0
 40
0.0
 40
0.0
 40
0.5
 40
0.5
 40
1.0
 40
1.0
 40
1.0
 40
1.0
 10
165.321964746333
 20
170.4859821928135
 30
0.0
 10
165.3224307538148
 20
170.4965598092302
 30
0.0
 10
165.3222178090062
 20
170.5069453155666
 30
0.0
 10
165.3205654862829
 20
170.522009090218
 30
0.0
 10
165.3191339029268
 20
170.5265997825368
 30
0.0
 10
165.3174519623296
 20
170.526896354044
 30
0.0
  0
ARC
  5
2B6
330
3C
100
AcDbEntity
  8
スクリベット5102_10031
  6
CONTINUOUS
 62
     7
100
AcDbCircle
 10
166.4425905621
 20
170.4366119005
 30
0.0
 40
1.121712817376031
100
AcDbArc
 50
177.4774082831
 51
182.5225917169
  0
ELLIPSE
  5
2B7
330
3C
100
AcDbEntity
  8
スクリベット5102_10031
  6
CONTINUOUS
 62
     7
100
AcDbEllipse
 10
166.3870292684
 20
170.4366119006
 30
0.0
 11
-2.928401965363037E-9
 21
-1.100481473563142
 31
0.0
210
0.0
220
0.0
230
1.0
 40
0.9848077533
 41
4.823205775718761
 42
4.874362218826272
  0
ELLIPSE
  5
2B8
330
3C
100
AcDbEntity
  8
スクリベット5102_10031
  6
CONTINUOUS
 62
     7
100
AcDbEllipse
 10
165.3297233196
 20
170.5265672883
 30
0.0
 11
0.003472963554790321
 21
0.01969615506000056
 31
0.0
210
0.0
220
0.0
230
1.0
 40
0.9938661003
 41
1.661261286589544
 42
2.908109647469291
  0
LINE
  5
2B9
330
3C
100
AcDbEntity
  8
スクリベット5102_10031
  6
CONTINUOUS
 62
     7
100
AcDbLine
 10
165.4240963084
 20
169.9266119005
 30
0.0
 11
165.4240963084
 21
170.9466119005
 31
0.0
  0
LINE
  5
2BA
330
3C
100
AcDbEntity
  8
スクリベット5102_10031
  6
CONTINUOUS
 62
     7
100
AcDbLine
 10
165.4189581212
 20
169.9366119005
 30
0.0
 11
165.4189581212
 21
170.9366119005
 31
0.0
  0
ARC
  5
2BB
330
3C
100
AcDbEntity
  8
スクリベット5102_10031
  6
CONTINUOUS
 62
     7
100
AcDbCircle
 10
166.4043641289
 20
170.4366119005
 30
0.0
 40
1.105000000000001
100
AcDbArc
 50
140.6923518839
 51
152.5135737496
  0
ARC
  5
2BC
330
3C
100
AcDbEntity
  8
スクリベット5102_10031
  6
CONTINUOUS
 62
     7
100
AcDbCircle
 10
166.4043641289
 20
170.4366119005
 30
0.0
 40
1.105000000000002
100
AcDbArc
 50
207.4864262504
 51
219.3076481161
  0
LINE
  5
2BD
330
3C
100
AcDbEntity
  8
スクリベット5102_10031
  6
CONTINUOUS
 62
     7
100
AcDbLine
 10
165.5993641289
 20
171.1366119005
 30
0.0
 11
165.5493641289
 21
171.1366119005
 31
0.0
  0
LINE
  5
2BE
330
3C
100
AcDbEntity
  8
スクリベット5102_10031
  6
CONTINUOUS
 62
     7
100
AcDbLine
 10
165.5493641289
 20
169.7366119005
 30
0.0
 11
165.5993641289
 21
169.7366119005
 31
0.0
  0
ARC
  5
2BF
330
3C
100
AcDbEntity
  8
スクリベット5102_10031
  6
CONTINUOUS
 62
     7
100
AcDbCircle
 10
165.3404883741
 20
170.6496691188
 30
0.0
 40
0.02
100
AcDbArc
 50
168.6754616049
 51
196.9070906111
  0
SPLINE
  5
2C0
330
3C
100
AcDbEntity
  8
スクリベット5102_10031
  6
CONTINUOUS
 62
     7
100
AcDbSpline
210
0.0
220
0.0
230
1.0
 70
     8
 71
     3
 72
    13
 73
     9
 74
     0
 42
0.0000001930314846
 43
0.0000000001
 40
0.3205199328252292
 40
0.3205199328252292
 40
0.3205199328252292
 40
0.3205199328252292
 40
0.3703634832798818
 40
0.4541322407176402
 40
0.5845043995183898
 40
0.7543250588969159
 40
0.9429231006773634
 40
1.0
 40
1.0
 40
1.0
 40
1.0
 10
165.321797502155
 20
170.6479513493848
 30
0.0
 10
165.3217974033241
 20
170.6479524191315
 30
0.0
 10
165.3217907412916
 20
170.6475226241275
 30
0.0
 10
165.3216354166596
 20
170.6452054229962
 30
0.0
 10
165.3210769551673
 20
170.6397514141851
 30
0.0
 10
165.3198463223521
 20
170.63023507417
 30
0.0
 10
165.3183752598964
 20
170.6201270191491
 30
0.0
 10
165.3174478409103
 20
170.6145688428494
 30
0.0
 10
165.3171972217345
 20
170.6130701610978
 30
0.0
  0
LINE
  5
2C1
330
3C
100
AcDbEntity
  8
スクリベット5102_10031
  6
CONTINUOUS
 62
     7
100
AcDbLine
 10
165.3215220835
 20
170.4867050016
 30
0.0
 11
165.3214919156
 21
170.4859666214
 31
0.0
  0
SPLINE
  5
2C2
330
3C
100
AcDbEntity
  8
スクリベット5102_10031
  6
CONTINUOUS
 62
     7
100
AcDbSpline
210
0.0
220
0.0
230
1.0
 70
     8
 71
     3
 72
    12
 73
     8
 74
     0
 42
0.0000002187048574
 43
0.0000000001
 40
0.0
 40
0.0
 40
0.0
 40
0.0
 40
0.0679665707571391
 40
0.268241809713789
 40
0.4264812101673738
 40
0.5395258693470091
 40
0.6159711598154485
 40
0.6159711598154485
 40
0.6159711598154485
 40
0.6159711598154485
 10
165.3215717118039
 20
170.3854427610906
 30
0.0
 10
165.3216532648963
 20
170.3838396821829
 30
0.0
 10
165.3219234341689
 20
170.3783940011444
 30
0.0
 10
165.3217223095205
 20
170.369394189575
 30
0.0
 10
165.3211296655981
 20
170.3618171394254
 30
0.0
 10
165.3205136628354
 20
170.3581039863015
 30
0.0
 10
165.3203062831105
 20
170.3573971321045
 30
0.0
 10
165.3203072620018
 20
170.3574011777908
 30
0.0
  0
SPLINE
  5
2C3
330
3C
100
AcDbEntity
  8
スクリベット5102_10031
  6
CONTINUOUS
 62
     7
100
AcDbSpline
210
0.0
220
0.0
230
1.0
 70
     8
 71
     3
 72
    14
 73
    10
 74
     0
 42
0.0000001729437714
 43
0.0000000001
 40
0.1977173442535412
 40
0.1977173442535412
 40
0.1977173442535412
 40
0.1977173442535412
 40
0.2354179061600117
 40
0.3100246381656883
 40
0.3820285317892465
 40
0.4672288552513882
 40
0.667615731361399
 40
0.8663057206503114
 40
1.0
 40
1.0
 40
1.0
 40
1.0
 10
165.3145180669054
 20
170.3597853719126
 30
0.0
 10
165.3139664676378
 20
170.3591704963981
 30
0.0
 10
165.3124469556388
 20
170.3572662817594
 30
0.0
 10
165.3105924501859
 20
170.353803755151
 30
0.0
 10
165.3093238238779
 20
170.3496553291081
 30
0.0
 10
165.308468963468
 20
170.3442182215528
 30
0.0
 10
165.3082738151088
 20
170.3366960845205
 30
0.0
 10
165.3087773212939
 20
170.3253806303295
 30
0.0
 10
165.3095342217577
 20
170.3182631961792
 30
0.0
 10
165.3098964772922
 20
170.3149340015945
 30
0.0
  0
SPLINE
  5
2C4
330
3C
100
AcDbEntity
  8
スクリベット5102_10031
  6
CONTINUOUS
 62
     7
100
AcDbSpline
210
0.0
220
0.0
230
1.0
 70
     8
 71
     3
 72
    12
 73
     8
 74
     0
 42
0.0000002016571955
 43
0.0000000001
 40
0.0
 40
0.0
 40
0.0
 40
0.0
 40
0.0888908249105819
 40
0.2895392926701217
 40
0.4875830158498202
 40
0.6098688925136515
 40
0.6763067360666497
 40
0.6763067360666497
 40
0.6763067360666497
 40
0.6763067360666497
 10
165.3174651399381
 20
170.2584655814829
 30
0.0
 10
165.3178370517981
 20
170.2561863153934
 30
0.0
 10
165.3188760652608
 20
170.2497953914164
 30
0.0
 10
165.3204227397519
 20
170.2388031972
 30
0.0
 10
165.3214664865542
 20
170.2299933497123
 30
0.0
 10
165.3217822616617
 20
170.2260352552328
 30
0.0
 10
165.3217971846032
 20
170.2252372917649
 30
0.0
 10
165.3217975379427
 20
170.2252497815891
 30
0.0
  0
ARC
  5
2C5
330
3C
100
AcDbEntity
  8
スクリベット5102_10031
  6
CONTINUOUS
 62
     7
100
AcDbCircle
 10
165.3404883741
 20
170.2235546823
 30
0.0
 40
0.0200000000000011
100
AcDbArc
 50
174.8175224394
 51
191.3245383952
  0
ARC
  5
2C6
330
3C
100
AcDbEntity
  8
スクリベット5102_10031
  6
CONTINUOUS
 62
     7
100
AcDbCircle
 10
166.4043641289
 20
170.4366119005
 30
0.0
 40
1.104999999999999
100
AcDbArc
 50
153.0965319639
 51
168.6754616049
  0
ARC
  5
2C7
330
3C
100
AcDbEntity
  8
スクリベット5102_10031
  6
CONTINUOUS
 62
     7
100
AcDbCircle
 10
166.4043641289
 20
170.4366119005
 30
0.0
 40
1.104999999999999
100
AcDbArc
 50
191.3245383951
 51
206.9034680361
  0
LINE
  5
2C8
330
3C
100
AcDbEntity
  8
スクリベット5102_10031
  6
CONTINUOUS
 62
     7
100
AcDbLine
 10
165.4189581212
 20
169.9366119005
 30
0.0
 11
165.4240963084
 21
169.9366119005
 31
0.0
  0
LINE
  5
2C9
330
3C
100
AcDbEntity
  8
スクリベット5102_10031
  6
CONTINUOUS
 62
     7
100
AcDbLine
 10
165.4240963084
 20
170.9366119005
 30
0.0
 11
165.4189581212
 21
170.9366119005
 31
0.0
  0
LINE
  5
2CA
330
3C
100
AcDbEntity
  8
スクリベット5102_10031
  6
CONTINUOUS
 62
     7
100
AcDbLine
 10
165.5493641289
 20
236.2701189426
 30
0.0
 11
165.5493641289
 21
234.8701189426
 31
0.0
  0
ELLIPSE
  5
2CB
330
3C
100
AcDbEntity
  8
スクリベット5102_10031
  6
CONTINUOUS
 62
     7
100
AcDbEllipse
 10
166.3870292664
 20
235.5701189427
 30
0.0
 11
4.811162579443363E-9
 21
1.100481472499903
 31
0.0
210
0.0
220
0.0
230
1.0
 40
0.9848077524
 41
1.408823095375664
 42
1.459979538532128
  0
SPLINE
  5
2CC
330
3C
100
AcDbEntity
  8
スクリベット5102_10031
  6
CONTINUOUS
 62
     7
100
AcDbSpline
210
0.0
220
0.0
230
1.0
 70
     8
 71
     3
 72
    10
 73
     6
 74
     0
 42
0.0000003235086369
 43
0.0000000001
 40
0.0
 40
0.0
 40
0.0
 40
0.0
 40
0.4999999999999998
 40
0.4999999999999998
 40
1.0
 40
1.0
 40
1.0
 40
1.0
 10
165.3099142724723
 20
235.6918213209232
 30
0.0
 10
165.3090517816845
 20
235.6839505992749
 30
0.0
 10
165.3085625695363
 20
235.6762545827661
 30
0.0
 10
165.3085634266561
 20
235.6651888813429
 30
0.0
 10
165.3090517939712
 20
235.6618845724137
 30
0.0
 10
165.3099142724723
 20
235.6617324941837
 30
0.0
  0
SPLINE
  5
2CD
330
3C
100
AcDbEntity
  8
スクリベット5102_10031
  6
CONTINUOUS
 62
     7
100
AcDbSpline
210
0.0
220
0.0
230
1.0
 70
     8
 71
     3
 72
    10
 73
     6
 74
     0
 42
0.0000002344868897
 43
0.0000000001
 40
0.0
 40
0.0
 40
0.0
 40
0.0
 40
0.5
 40
0.5
 40
1.0
 40
1.0
 40
1.0
 40
1.0
 10
165.321964746333
 20
235.6194892348591
 30
0.0
 10
165.3224307538148
 20
235.6300668512758
 30
0.0
 10
165.3222178090062
 20
235.6404523576122
 30
0.0
 10
165.3205654862829
 20
235.6555161322636
 30
0.0
 10
165.3191339029268
 20
235.6601068245824
 30
0.0
 10
165.3174519623296
 20
235.6604033960897
 30
0.0
  0
ARC
  5
2CE
330
3C
100
AcDbEntity
  8
スクリベット5102_10031
  6
CONTINUOUS
 62
     7
100
AcDbCircle
 10
166.4425905621
 20
235.5701189426
 30
0.0
 40
1.121712817376536
100
AcDbArc
 50
177.4774082831
 51
182.5225917169
  0
ELLIPSE
  5
2CF
330
3C
100
AcDbEntity
  8
スクリベット5102_10031
  6
CONTINUOUS
 62
     7
100
AcDbEllipse
 10
166.3870292684
 20
235.5701189427
 30
0.0
 11
-3.901357015223539E-9
 21
-1.100481473560611
 31
0.0
210
0.0
220
0.0
230
1.0
 40
0.9848077533
 41
4.823205776596225
 42
4.874362219704111
  0
ELLIPSE
  5
2D0
330
3C
100
AcDbEntity
  8
スクリベット5102_10031
  6
CONTINUOUS
 62
     7
100
AcDbEllipse
 10
165.3297233196
 20
235.6600743304
 30
0.0
 11
0.003472963553913245
 21
0.01969615506014488
 31
0.0
210
0.0
220
0.0
230
0.9999999999999998
 40
0.9938661003
 41
1.66126128654567
 42
2.908109647425128
  0
LINE
  5
2D1
330
3C
100
AcDbEntity
  8
スクリベット5102_10031
  6
CONTINUOUS
 62
     7
100
AcDbLine
 10
165.4240963084
 20
236.0801189426
 30
0.0
 11
165.4240963084
 21
235.0601189426
 31
0.0
  0
LINE
  5
2D2
330
3C
100
AcDbEntity
  8
スクリベット5102_10031
  6
CONTINUOUS
 62
     7
100
AcDbLine
 10
165.4189581212
 20
236.0701189426
 30
0.0
 11
165.4189581212
 21
235.0701189426
 31
0.0
  0
ARC
  5
2D3
330
3C
100
AcDbEntity
  8
スクリベット5102_10031
  6
CONTINUOUS
 62
     7
100
AcDbCircle
 10
166.4043641289
 20
235.5701189426
 30
0.0
 40
1.105000000000008
100
AcDbArc
 50
140.6923518839
 51
152.5135737496
  0
ARC
  5
2D4
330
3C
100
AcDbEntity
  8
スクリベット5102_10031
  6
CONTINUOUS
 62
     7
100
AcDbCircle
 10
166.4043641289
 20
235.5701189426
 30
0.0
 40
1.104999999999997
100
AcDbArc
 50
207.4864262504
 51
219.3076481161
  0
LINE
  5
2D5
330
3C
100
AcDbEntity
  8
スクリベット5102_10031
  6
CONTINUOUS
 62
     7
100
AcDbLine
 10
165.5993641289
 20
236.2701189426
 30
0.0
 11
165.5493641289
 21
236.2701189426
 31
0.0
  0
LINE
  5
2D6
330
3C
100
AcDbEntity
  8
スクリベット5102_10031
  6
CONTINUOUS
 62
     7
100
AcDbLine
 10
165.5493641289
 20
234.8701189426
 30
0.0
 11
165.5993641289
 21
234.8701189426
 31
0.0
  0
ARC
  5
2D7
330
3C
100
AcDbEntity
  8
スクリベット5102_10031
  6
CONTINUOUS
 62
     7
100
AcDbCircle
 10
165.3404883741
 20
235.7831761608
 30
0.0
 40
0.0200000000000021
100
AcDbArc
 50
168.6754616049
 51
196.9070906111
  0
SPLINE
  5
2D8
330
3C
100
AcDbEntity
  8
スクリベット5102_10031
  6
CONTINUOUS
 62
     7
100
AcDbSpline
210
0.0
220
0.0
230
1.0
 70
     8
 71
     3
 72
    13
 73
     9
 74
     0
 42
0.0000001930314846
 43
0.0000000001
 40
0.3205199328254428
 40
0.3205199328254428
 40
0.3205199328254428
 40
0.3205199328254428
 40
0.3703634832799029
 40
0.4541322407177154
 40
0.5845043995183816
 40
0.7543250588970317
 40
0.9429231006773621
 40
1.0
 40
1.0
 40
1.0
 40
1.0
 10
165.321797502155
 20
235.7814583914304
 30
0.0
 10
165.321797403324
 20
235.781459461177
 30
0.0
 10
165.3217907412916
 20
235.7810296661732
 30
0.0
 10
165.3216354166596
 20
235.7787124650418
 30
0.0
 10
165.3210769551673
 20
235.7732584562306
 30
0.0
 10
165.319846322352
 20
235.7637421162157
 30
0.0
 10
165.3183752598964
 20
235.7536340611948
 30
0.0
 10
165.3174478409103
 20
235.748075884895
 30
0.0
 10
165.3171972217345
 20
235.7465772031435
 30
0.0
  0
LINE
  5
2D9
330
3C
100
AcDbEntity
  8
スクリベット5102_10031
  6
CONTINUOUS
 62
     7
100
AcDbLine
 10
165.3215220835
 20
235.6202120436
 30
0.0
 11
165.3214919156
 21
235.6194736634
 31
0.0
  0
SPLINE
  5
2DA
330
3C
100
AcDbEntity
  8
スクリベット5102_10031
  6
CONTINUOUS
 62
     7
100
AcDbSpline
210
0.0
220
0.0
230
1.0
 70
     8
 71
     3
 72
    12
 73
     8
 74
     0
 42
0.0000002187048574
 43
0.0000000001
 40
0.0
 40
0.0
 40
0.0
 40
0.0
 40
0.0679665707572975
 40
0.2682418097140015
 40
0.4264812101674265
 40
0.5395258693471896
 40
0.6159711598156794
 40
0.6159711598156794
 40
0.6159711598156794
 40
0.6159711598156794
 10
165.3215717118039
 20
235.5189498031363
 30
0.0
 10
165.3216532648963
 20
235.5173467242286
 30
0.0
 10
165.3219234341688
 20
235.5119010431897
 30
0.0
 10
165.3217223095204
 20
235.5029012316207
 30
0.0
 10
165.3211296655981
 20
235.4953241814711
 30
0.0
 10
165.3205136628353
 20
235.491611028347
 30
0.0
 10
165.3203062831105
 20
235.4909041741499
 30
0.0
 10
165.3203072620018
 20
235.4909082198363
 30
0.0
  0
SPLINE
  5
2DB
330
3C
100
AcDbEntity
  8
スクリベット5102_10031
  6
CONTINUOUS
 62
     7
100
AcDbSpline
210
0.0
220
0.0
230
1.0
 70
     8
 71
     3
 72
    14
 73
    10
 74
     0
 42
0.0000001729437714
 43
0.0000000001
 40
0.1977173442522123
 40
0.1977173442522123
 40
0.1977173442522123
 40
0.1977173442522123
 40
0.235417906159947
 40
0.3100246381658912
 40
0.3820285317892837
 40
0.4672288552513221
 40
0.6676157313614095
 40
0.8663057206504505
 40
1.0
 40
1.0
 40
1.0
 40
1.0
 10
165.3145180669054
 20
235.4932924139582
 30
0.0
 10
165.3139664676379
 20
235.4926775384437
 30
0.0
 10
165.3124469556387
 20
235.4907733238049
 30
0.0
 10
165.3105924501859
 20
235.4873107971967
 30
0.0
 10
165.3093238238779
 20
235.4831623711536
 30
0.0
 10
165.308468963468
 20
235.4777252635986
 30
0.0
 10
165.3082738151088
 20
235.4702031265659
 30
0.0
 10
165.3087773212939
 20
235.4588876723751
 30
0.0
 10
165.3095342217577
 20
235.4517702382248
 30
0.0
 10
165.3098964772922
 20
235.4484410436401
 30
0.0
  0
SPLINE
  5
2DC
330
3C
100
AcDbEntity
  8
スクリベット5102_10031
  6
CONTINUOUS
 62
     7
100
AcDbSpline
210
0.0
220
0.0
230
1.0
 70
     8
 71
     3
 72
    12
 73
     8
 74
     0
 42
0.0000002016571955
 43
0.0000000001
 40
0.0
 40
0.0
 40
0.0
 40
0.0
 40
0.0888908249105917
 40
0.2895392926701537
 40
0.4875830158498208
 40
0.6098688925135943
 40
0.6763067360668482
 40
0.6763067360668482
 40
0.6763067360668482
 40
0.6763067360668482
 10
165.3174651399381
 20
235.3919726235286
 30
0.0
 10
165.3178370517981
 20
235.3896933574391
 30
0.0
 10
165.3188760652608
 20
235.3833024334621
 30
0.0
 10
165.3204227397519
 20
235.3723102392457
 30
0.0
 10
165.3214664865542
 20
235.3635003917579
 30
0.0
 10
165.3217822616617
 20
235.3595422972785
 30
0.0
 10
165.3217971846032
 20
235.3587443338104
 30
0.0
 10
165.3217975379428
 20
235.3587568236347
 30
0.0
  0
ARC
  5
2DD
330
3C
100
AcDbEntity
  8
スクリベット5102_10031
  6
CONTINUOUS
 62
     7
100
AcDbCircle
 10
165.3404883741
 20
235.3570617243
 30
0.0
 40
0.0200000000000121
100
AcDbArc
 50
174.8175224393
 51
191.3245383951
  0
ARC
  5
2DE
330
3C
100
AcDbEntity
  8
スクリベット5102_10031
  6
CONTINUOUS
 62
     7
100
AcDbCircle
 10
166.4043641289
 20
235.5701189426
 30
0.0
 40
1.105000000000004
100
AcDbArc
 50
153.0965319639
 51
168.6754616049
  0
ARC
  5
2DF
330
3C
100
AcDbEntity
  8
スクリベット5102_10031
  6
CONTINUOUS
 62
     7
100
AcDbCircle
 10
166.4043641289
 20
235.5701189426
 30
0.0
 40
1.105000000000001
100
AcDbArc
 50
191.3245383951
 51
206.9034680361
  0
LINE
  5
2E0
330
3C
100
AcDbEntity
  8
スクリベット5102_10031
  6
CONTINUOUS
 62
     7
100
AcDbLine
 10
165.4189581212
 20
235.0701189426
 30
0.0
 11
165.4240963084
 21
235.0701189426
 31
0.0
  0
LINE
  5
2E1
330
3C
100
AcDbEntity
  8
スクリベット5102_10031
  6
CONTINUOUS
 62
     7
100
AcDbLine
 10
165.4240963084
 20
236.0701189426
 30
0.0
 11
165.4189581212
 21
236.0701189426
 31
0.0
  0
LINE
  5
2E2
330
3C
100
AcDbEntity
  8
スクリベット5102_10031
  6
CONTINUOUS
 62
     7
100
AcDbLine
 10
86.9093641289
 20
234.8701189426
 30
0.0
 11
86.9093641289
 21
236.2701189426
 31
0.0
  0
ELLIPSE
  5
2E3
330
3C
100
AcDbEntity
  8
スクリベット5102_10031
  6
CONTINUOUS
 62
     7
100
AcDbEllipse
 10
86.0716989899
 20
235.5701189425
 30
0.0
 11
-1.129540905253634E-10
 21
1.100481473306347
 31
0.0
210
0.0
220
0.0
230
1.0
 40
0.9848077531
 41
4.823205772953125
 42
4.874362216072203
  0
ARC
  5
2E4
330
3C
100
AcDbEntity
  8
スクリベット5102_10031
  6
CONTINUOUS
 62
     7
100
AcDbCircle
 10
86.0161376957
 20
235.5701189426
 30
0.0
 40
1.121712817377042
100
AcDbArc
 50
357.4774082831
 51
2.5225917169
  0
SPLINE
  5
2E5
330
3C
100
AcDbEntity
  8
スクリベット5102_10031
  6
CONTINUOUS
 62
     7
100
AcDbSpline
210
0.0
220
0.0
230
1.0
 70
     8
 71
     3
 72
    10
 73
     6
 74
     0
 42
0.0000002344868897
 43
0.0000000001
 40
0.0
 40
0.0
 40
0.0
 40
0.0
 40
0.5
 40
0.5
 40
1.0
 40
1.0
 40
1.0
 40
1.0
 10
87.13676351148789
 20
235.5207486502512
 30
0.0
 10
87.13629750400614
 20
235.5101710338345
 30
0.0
 10
87.13651044881463
 20
235.4997855274981
 30
0.0
 10
87.13816277153796
 20
235.4847217528466
 30
0.0
 10
87.13959435489413
 20
235.4801310605279
 30
0.0
 10
87.14127629549131
 20
235.4798344890206
 30
0.0
  0
SPLINE
  5
2E6
330
3C
100
AcDbEntity
  8
スクリベット5102_10031
  6
CONTINUOUS
 62
     7
100
AcDbSpline
210
0.0
220
0.0
230
1.0
 70
     8
 71
     3
 72
    10
 73
     6
 74
     0
 42
0.0000003235086369
 43
0.0000000001
 40
0.0
 40
0.0
 40
0.0
 40
0.0
 40
0.4999999999999996
 40
0.4999999999999996
 40
1.0
 40
1.0
 40
1.0
 40
1.0
 10
87.1488139853486
 20
235.4484165641871
 30
0.0
 10
87.14967647613635
 20
235.4562872858355
 30
0.0
 10
87.15016568828459
 20
235.4639833023441
 30
0.0
 10
87.15016483116483
 20
235.4750490037674
 30
0.0
 10
87.14967646384972
 20
235.4783533126966
 30
0.0
 10
87.1488139853486
 20
235.4785053909266
 30
0.0
  0
ELLIPSE
  5
2E7
330
3C
100
AcDbEntity
  8
スクリベット5102_10031
  6
CONTINUOUS
 62
     7
100
AcDbEllipse
 10
86.0716989915
 20
235.5701189424
 30
0.0
 11
-6.763500870476947E-9
 21
-1.100481472452652
 31
0.0
210
0.0
220
0.0
230
1.0
 40
0.9848077524
 41
1.408823097126999
 42
1.459979540285207
  0
ARC
  5
2E8
330
3C
100
AcDbEntity
  8
スクリベット5102_10031
  6
CONTINUOUS
 62
     7
100
AcDbCircle
 10
87.3538993829
 20
235.3483272531
 30
0.0
 40
0.217193404112573
100
AcDbArc
 50
168.2252423993
 51
178.6811927476
  0
ELLIPSE
  5
2E9
330
3C
100
AcDbEntity
  8
スクリベット5102_10031
  6
CONTINUOUS
 62
     7
100
AcDbEllipse
 10
87.1290049382
 20
235.4801635548
 30
0.0
 11
0.003472963553402542
 21
0.0196961550602559
 31
0.0
210
0.0
220
0.0
230
1.0
 40
0.9938661003
 41
4.802853940106732
 42
6.042107870004384
  0
LINE
  5
2EA
330
3C
100
AcDbEntity
  8
スクリベット5102_10031
  6
CONTINUOUS
 62
     7
100
AcDbLine
 10
87.0346319495
 20
235.0601189426
 30
0.0
 11
87.0346319495
 21
236.0801189426
 31
0.0
  0
LINE
  5
2EB
330
3C
100
AcDbEntity
  8
スクリベット5102_10031
  6
CONTINUOUS
 62
     7
100
AcDbLine
 10
87.0397701366
 20
235.0701189426
 30
0.0
 11
87.0397701366
 21
236.0701189426
 31
0.0
  0
ARC
  5
2EC
330
3C
100
AcDbEntity
  8
スクリベット5102_10031
  6
CONTINUOUS
 62
     7
100
AcDbCircle
 10
86.0543641289
 20
235.5701189426
 30
0.0
 40
1.104999999999997
100
AcDbArc
 50
27.4864262504
 51
39.3076481161
  0
ARC
  5
2ED
330
3C
100
AcDbEntity
  8
スクリベット5102_10031
  6
CONTINUOUS
 62
     7
100
AcDbCircle
 10
86.0543641289
 20
235.5701189426
 30
0.0
 40
1.104999999999994
100
AcDbArc
 50
320.6923518839
 51
332.5135737496
  0
LINE
  5
2EE
330
3C
100
AcDbEntity
  8
スクリベット5102_10031
  6
CONTINUOUS
 62
     7
100
AcDbLine
 10
86.8593641289
 20
234.8701189426
 30
0.0
 11
86.9093641289
 21
234.8701189426
 31
0.0
  0
LINE
  5
2EF
330
3C
100
AcDbEntity
  8
スクリベット5102_10031
  6
CONTINUOUS
 62
     7
100
AcDbLine
 10
86.9093641289
 20
236.2701189426
 30
0.0
 11
86.8593641289
 21
236.2701189426
 31
0.0
  0
ARC
  5
2F0
330
3C
100
AcDbEntity
  8
スクリベット5102_10031
  6
CONTINUOUS
 62
     7
100
AcDbCircle
 10
87.1182398838
 20
235.7831761608
 30
0.0
 40
0.0200000000000121
100
AcDbArc
 50
354.8175224392
 51
11.3245383951
  0
SPLINE
  5
2F1
330
3C
100
AcDbEntity
  8
スクリベット5102_10031
  6
CONTINUOUS
 62
     7
100
AcDbSpline
210
0.0
220
0.0
230
1.0
 70
     8
 71
     3
 72
    12
 73
     8
 74
     0
 42
0.0000002020104314
 43
0.0000000001
 40
0.0
 40
0.0
 40
0.0
 40
0.0
 40
0.089046556741004
 40
0.2900465495672422
 40
0.4884372344444016
 40
0.6109373492308968
 40
0.6774915954755341
 40
0.6774915954755341
 40
0.6774915954755341
 40
0.6774915954755341
 10
87.14126311788281
 20
235.7482652615817
 30
0.0
 10
87.14089120602281
 20
235.7505445276712
 30
0.0
 10
87.13985219250603
 20
235.7569354517601
 30
0.0
 10
87.1383055185174
 20
235.7679276449389
 30
0.0
 10
87.1372617699247
 20
235.7767374961224
 30
0.0
 10
87.13694599854362
 20
235.7806955829725
 30
0.0
 10
87.13693107045123
 20
235.7814935570682
 30
0.0
 10
87.13693071904041
 20
235.7814810632002
 30
0.0
  0
SPLINE
  5
2F2
330
3C
100
AcDbEntity
  8
スクリベット5102_10031
  6
CONTINUOUS
 62
     7
100
AcDbSpline
210
0.0
220
0.0
230
1.0
 70
     8
 71
     3
 72
    15
 73
    11
 74
     0
 42
0.0000001708132453
 43
0.0000000001
 40
0.1238161199989411
 40
0.1238161199989411
 40
0.1238161199989411
 40
0.1238161199989411
 40
0.1518167204981881
 40
0.2339956019906474
 40
0.3087384674604366
 40
0.3808737451991871
 40
0.466229532048221
 40
0.666982050222519
 40
0.8660345853017589
 40
1.0
 40
1.0
 40
1.0
 40
1.0
 10
87.14060021601942
 20
235.643694414251
 30
0.0
 10
87.14111726694998
 20
235.6440683644858
 30
0.0
 10
87.1430849910335
 20
235.6456367361676
 30
0.0
 10
87.14583533326609
 20
235.6486313629398
 30
0.0
 10
87.14813579345079
 20
235.6529271926038
 30
0.0
 10
87.14940443840841
 20
235.6570754814088
 30
0.0
 10
87.15025929068136
 20
235.6625126454576
 30
0.0
 10
87.15045444803488
 20
235.6700347494809
 30
0.0
 10
87.14995089774752
 20
235.6813507923069
 30
0.0
 10
87.1491939308822
 20
235.6884688067184
 30
0.0
 10
87.14883159795092
 20
235.6917986774671
 30
0.0
  0
SPLINE
  5
2F3
330
3C
100
AcDbEntity
  8
スクリベット5102_10031
  6
CONTINUOUS
 62
     7
100
AcDbSpline
210
0.0
220
0.0
230
1.0
 70
     8
 71
     3
 72
    12
 73
     8
 74
     0
 42
0.0000002187048574
 43
0.0000000001
 40
0.0
 40
0.0
 40
0.0
 40
0.0
 40
0.0679665707566678
 40
0.2682418097132239
 40
0.4264812101665519
 40
0.5395258693464217
 40
0.615971159815398
 40
0.615971159815398
 40
0.615971159815398
 40
0.615971159815398
 10
87.13715654601702
 20
235.6212880819741
 30
0.0
 10
87.13707499292454
 20
235.6228911608817
 30
0.0
 10
87.13680482365204
 20
235.6283368419204
 30
0.0
 10
87.13700594830046
 20
235.6373366534897
 30
0.0
 10
87.13759859222277
 20
235.6449137036392
 30
0.0
 10
87.13821459498554
 20
235.6486268567633
 30
0.0
 10
87.13842197471044
 20
235.6493337109602
 30
0.0
 10
87.13842099581909
 20
235.6493296652738
 30
0.0
  0
LINE
  5
2F4
330
3C
100
AcDbEntity
  8
スクリベット5102_10031
  6
CONTINUOUS
 62
     7
100
AcDbLine
 10
87.1372061743
 20
235.5200258415
 30
0.0
 11
87.1372363378
 21
235.5207641126
 31
0.0
  0
ARC
  5
2F5
330
3C
100
AcDbEntity
  8
スクリベット5102_10031
  6
CONTINUOUS
 62
     7
100
AcDbCircle
 10
87.1182398838
 20
235.3570617243
 30
0.0
 40
0.0200000000000021
100
AcDbArc
 50
348.6754616049
 51
16.9671789399
  0
ARC
  5
2F6
330
3C
100
AcDbEntity
  8
スクリベット5102_10031
  6
CONTINUOUS
 62
     7
100
AcDbCircle
 10
86.0543641289
 20
235.5701189426
 30
0.0
 40
1.105000000000001
100
AcDbArc
 50
11.3245383951
 51
26.9034680361
  0
ARC
  5
2F7
330
3C
100
AcDbEntity
  8
スクリベット5102_10031
  6
CONTINUOUS
 62
     7
100
AcDbCircle
 10
86.0543641289
 20
235.5701189426
 30
0.0
 40
1.105000000000004
100
AcDbArc
 50
333.0965319639
 51
348.6754616049
  0
LINE
  5
2F8
330
3C
100
AcDbEntity
  8
スクリベット5102_10031
  6
CONTINUOUS
 62
     7
100
AcDbLine
 10
87.0397701366
 20
236.0701189426
 30
0.0
 11
87.0346319495
 21
236.0701189426
 31
0.0
  0
LINE
  5
2F9
330
3C
100
AcDbEntity
  8
スクリベット5102_10031
  6
CONTINUOUS
 62
     7
100
AcDbLine
 10
87.0346319495
 20
235.0701189426
 30
0.0
 11
87.0397701366
 21
235.0701189426
 31
0.0
  0
LINE
  5
2FB
330
3C
100
AcDbEntity
  8
ﾐﾗｰ支柱カバー160803_ﾃ_
  6
CONTINUOUS
 62
     7
100
AcDbLine
 10
165.6793641289
 20
97.9147882458
 30
0.0
 11
165.6793641289
 21
97.916006365
 31
0.0
  0
LINE
  5
2FC
330
3C
100
AcDbEntity
  8
ﾐﾗｰ支柱カバー160803_ﾃ_
  6
CONTINUOUS
 62
     7
100
AcDbLine
 10
165.6793641289
 20
97.9147882458
 30
0.0
 11
165.67618103
 21
97.9147882458
 31
0.0
  0
ELLIPSE
  5
2FD
330
3C
100
AcDbEntity
  8
ﾐﾗｰ支柱カバー160803_ﾃ_
  6
CONTINUOUS
 62
     7
100
AcDbEllipse
 10
165.6793641289
 20
97.9147882458
 30
0.0
 11
0.003183098861797573
 21
0.0
 31
0.0
210
0.0
220
0.0
230
1.0
 40
0.3826834323
 41
1.570796326794897
 42
3.141592653589793
  0
LINE
  5
2FE
330
3C
100
AcDbEntity
  8
ﾐﾗｰ支柱カバー160803_ﾃ_
  6
CONTINUOUS
 62
     7
100
AcDbLine
 10
165.67618103
 20
97.9147882458
 30
0.0
 11
165.5993641289
 21
97.9147882458
 31
0.0
  0
SPLINE
  5
2FF
330
3C
100
AcDbEntity
  8
ﾐﾗｰ支柱カバー160803_ﾃ_
  6
CONTINUOUS
 62
     7
100
AcDbSpline
210
0.0
220
0.0
230
1.0
 70
     8
 71
     3
 72
    14
 73
    10
 74
     0
 42
0.0000001206673862
 43
0.0000000001
 40
0.0
 40
0.0
 40
0.0
 40
0.0
 40
0.25
 40
0.25
 40
0.5
 40
0.5
 40
0.75
 40
0.75
 40
1.0
 40
1.0
 40
1.0
 40
1.0
 10
165.5993641289105
 20
237.5847882457912
 30
0.0
 10
165.5993641289105
 20
237.5862447199252
 30
0.0
 10
165.601446314777
 20
237.5876991263302
 30
0.0
 10
165.609461217842
 20
237.5900014854622
 30
0.0
 10
165.6153907815185
 20
237.5908462792307
 30
0.0
 10
165.6302003913123
 20
237.5914112257738
 30
0.0
 10
165.6390746104805
 20
237.5911291486717
 30
0.0
 10
165.6584242981613
 20
237.5890938735217
 30
0.0
 10
165.6688903880824
 20
237.5873398987468
 30
0.0
 10
165.6793641289105
 20
237.5847882457912
 30
0.0
  0
ELLIPSE
  5
300
330
3C
100
AcDbEntity
  8
ﾐﾗｰ支柱カバー160803_ﾃ_
  6
CONTINUOUS
 62
     7
100
AcDbEllipse
 10
165.6793641289
 20
97.9147882458
 30
0.0
 11
0.07999999999994678
 21
0.0
 31
0.0
210
0.0
220
0.0
230
1.0
 40
0.3826834324
 41
1.570796326794897
 42
3.141592653589793
  0
LINE
  5
301
330
3C
100
AcDbEntity
  8
ﾐﾗｰ支柱カバー160803_ﾃ_
  6
CONTINUOUS
 62
     7
100
AcDbLine
 10
165.5993641289
 20
97.9147882458
 30
0.0
 11
165.5993641289
 21
237.5847882458
 31
0.0
  0
LINE
  5
302
330
3C
100
AcDbEntity
  8
ﾐﾗｰ支柱カバー160803_ﾃ_
  6
CONTINUOUS
 62
     7
100
AcDbLine
 10
165.6793641289
 20
237.5847882458
 30
0.0
 11
168.9320371409
 21
237.5847882458
 31
0.0
  0
ELLIPSE
  5
303
330
3C
100
AcDbEntity
  8
ﾐﾗｰ支柱カバー160803_ﾃ_
  6
CONTINUOUS
 62
     7
100
AcDbEllipse
 10
165.6793641289
 20
97.9147882458
 30
0.0
 11
0.003183098861947454
 21
8.326672684688676E-15
 31
0.0
210
0.0
220
0.0
230
1.0
 40
0.3826834324
 41
0.0000023025548922
 42
1.570796326793896
  0
LINE
  5
304
330
3C
100
AcDbEntity
  8
ﾐﾗｰ支柱カバー160803_ﾃ_
  6
CONTINUOUS
 62
     7
100
AcDbLine
 10
165.6793641289
 20
97.9454029204
 30
0.0
 11
168.9320371409
 21
97.9454029204
 31
0.0
  0
LINE
  5
305
330
3C
100
AcDbEntity
  8
ﾐﾗｰ支柱カバー160803_ﾃ_
  6
CONTINUOUS
 62
     7
100
AcDbLine
 10
165.6825472278
 20
97.9147882458
 30
0.0
 11
168.9320371409
 21
97.9147882458
 31
0.0
  0
LINE
  5
306
330
3C
100
AcDbEntity
  8
ﾐﾗｰ支柱カバー160803_ﾃ_
  6
CONTINUOUS
 62
     7
100
AcDbLine
 10
170.796638195
 20
237.5847882458
 30
0.0
 11
169.8979629672
 21
237.5847882458
 31
0.0
  0
ELLIPSE
  5
307
330
3C
100
AcDbEntity
  8
ﾐﾗｰ支柱カバー160803_ﾃ_
  6
CONTINUOUS
 62
     7
100
AcDbEllipse
 10
170.7193641289
 20
97.9147882458
 30
0.0
 11
0.0201149604526274
 21
0.00192566949496209
 31
0.0
210
0.0
220
0.0
230
0.9999999999999999
 40
0.0254022729
 41
0.2593675517903824
 42
1.83016387856617
  0
LINE
  5
308
330
3C
100
AcDbEntity
  8
ﾐﾗｰ支柱カバー160803_ﾃ_
  6
CONTINUOUS
 62
     7
100
AcDbLine
 10
169.8206889011
 20
97.9147882458
 30
0.0
 11
169.8979629672
 21
97.9227119066
 31
0.0
  0
LINE
  5
309
330
3C
100
AcDbEntity
  8
ﾐﾗｰ支柱カバー160803_ﾃ_
  6
CONTINUOUS
 62
     7
100
AcDbLine
 10
169.8979629672
 20
97.9227119066
 30
0.0
 11
170.796638195
 21
97.9227119066
 31
0.0
  0
LINE
  5
30A
330
3C
100
AcDbEntity
  8
ﾐﾗｰ支柱カバー160803_ﾃ_
  6
CONTINUOUS
 62
     7
100
AcDbLine
 10
169.8206889011
 20
97.9147882458
 30
0.0
 11
170.7141579787
 21
97.9147882458
 31
0.0
  0
LINE
  5
30B
330
3C
100
AcDbEntity
  8
ﾐﾗｰ支柱カバー160803_ﾃ_
  6
CONTINUOUS
 62
     7
100
AcDbLine
 10
170.7193641289
 20
97.9147882458
 30
0.0
 11
170.7394791488
 21
97.9147882458
 31
0.0
  0
LINE
  5
30C
330
3C
100
AcDbEntity
  8
ﾐﾗｰ支柱カバー160803_ﾃ_
  6
CONTINUOUS
 62
     7
100
AcDbLine
 10
170.7394791488
 20
97.9147882458
 30
0.0
 11
170.7993641289
 21
97.9147882458
 31
0.0
  0
LINE
  5
30D
330
3C
100
AcDbEntity
  8
ﾐﾗｰ支柱カバー160803_ﾃ_
  6
CONTINUOUS
 62
     7
100
AcDbLine
 10
170.7993641289
 20
97.9147882458
 30
0.0
 11
170.7993641289
 21
237.5847882458
 31
0.0
  0
LINE
  5
30E
330
3C
100
AcDbEntity
  8
ﾐﾗｰ支柱カバー160803_ﾃ_
  6
CONTINUOUS
 62
     7
100
AcDbLine
 10
170.7193641289
 20
97.9147882458
 30
0.0
 11
170.7193641289
 21
97.9153038929
 31
0.0
  0
ELLIPSE
  5
30F
330
3C
100
AcDbEntity
  8
ﾐﾗｰ支柱カバー160803_ﾃ_
  6
CONTINUOUS
 62
     7
100
AcDbEllipse
 10
170.7193641289
 20
97.9147882458
 30
0.0
 11
0.02011501993093856
 21
2.636779683484747E-14
 31
0.0
210
0.0
220
0.0
230
1.0
 40
0.3826834324
 41
0.0
 42
0.261799387801926
  0
LINE
  5
310
330
3C
100
AcDbEntity
  8
ﾐﾗｰ支柱カバー160803_ﾃ_
  6
CONTINUOUS
 62
     7
100
AcDbLine
 10
170.7387937462
 20
97.9167805532
 30
0.0
 11
170.796638195
 21
97.9227119066
 31
0.0
  0
ELLIPSE
  5
311
330
3C
100
AcDbEntity
  8
ﾐﾗｰ支柱カバー160803_ﾃ_
  6
CONTINUOUS
 62
     7
100
AcDbEllipse
 10
170.7193641289
 20
97.9147882458
 30
0.0
 11
0.07999999999975806
 21
-4.857225732735060E-14
 31
0.0
210
0.0
220
0.0
230
1.0
 40
0.3826834324
 41
0.0
 42
0.2617993877995792
  0
LINE
  5
312
330
3C
100
AcDbEntity
  8
ﾐﾗｰ支柱カバー160803_ﾃ_
  6
CONTINUOUS
 62
     7
100
AcDbLine
 10
170.796638195
 20
237.5847882458
 30
0.0
 11
170.7986797178
 21
237.5847537643
 31
0.0
  0
LINE
  5
313
330
3C
100
AcDbEntity
  8
ﾐﾗｰ支柱カバー160803_ﾃ_
  6
CONTINUOUS
 62
     7
100
AcDbLine
 10
170.7986797178
 20
237.5847537643
 30
0.0
 11
170.7993641289
 21
237.5847882458
 31
0.0
  0
ARC
  5
314
330
3C
100
AcDbEntity
  8
ﾐﾗｰ支柱カバー160803_ﾃ_
  6
CONTINUOUS
 62
     7
100
AcDbCircle
 10
168.8130050039
 20
72.3079407138
 30
0.0
 40
25.63773853213206
100
AcDbArc
 50
87.5745878795
 51
89.7339834177
  0
ARC
  5
315
330
3C
100
AcDbEntity
  8
ﾐﾗｰ支柱カバー160803_ﾃ_
  6
CONTINUOUS
 62
     7
100
AcDbCircle
 10
169.4150000541
 20
782.1765320347
 30
0.0
 40
544.5919579430663
100
AcDbArc
 50
269.9491881218
 51
270.0508118782
  0
ARC
  5
316
330
3C
100
AcDbEntity
  8
ﾐﾗｰ支柱カバー160803_ﾃ_
  6
CONTINUOUS
 62
     7
100
AcDbCircle
 10
169.376363021
 20
115.3604055831
 30
0.0
 40
17.45127473189625
100
AcDbArc
 50
268.5410378659
 51
271.2343189989
  0
LINE
  5
317
330
3C
100
AcDbEntity
  8
ﾐﾗｰ支柱カバー160803_ﾃ_
  6
CONTINUOUS
 62
     7
100
AcDbLine
 10
170.7141579787
 20
97.9147882458
 30
0.0
 11
170.7193641289
 21
97.9147882458
 31
0.0
  0
LINE
  5
318
330
3C
100
AcDbEntity
  8
ﾐﾗｰ支柱カバー160803_ﾃ_
  6
CONTINUOUS
 62
     7
100
AcDbLine
 10
170.7984532958
 20
237.5847423569
 30
0.0
 11
170.798906609
 21
237.5847631601
 31
0.0
  0
ARC
  5
319
330
3C
100
AcDbEntity
  8
ﾐﾗｰ支柱カバー160803_ﾃ_
  6
CONTINUOUS
 62
     7
100
AcDbCircle
 10
170.4185519202
 20
94.0309834097
 30
0.0
 40
3.937784056984925
100
AcDbArc
 50
98.5304490725
 51
99.761540351
  0
LINE
  5
31B
330
3C
100
AcDbEntity
  8
ﾐﾗｰ支柱上蓋150407_ﾃﾞ
  6
CONTINUOUS
 62
     7
100
AcDbLine
 10
165.5993641289
 20
237.5847882458
 30
0.0
 11
165.4993641289
 21
237.5847882458
 31
0.0
  0
LINE
  5
31C
330
3C
100
AcDbEntity
  8
ﾐﾗｰ支柱上蓋150407_ﾃﾞ
  6
CONTINUOUS
 62
     7
100
AcDbLine
 10
165.4993641289
 20
237.5847882458
 30
0.0
 11
165.4993641289
 21
237.4647882458
 31
0.0
  0
LINE
  5
31E
330
3C
100
AcDbEntity
  8
ﾐﾗｰ転点防止金具_前_1608
  6
CONTINUOUS
 62
     7
100
AcDbLine
 10
165.8293641289
 20
97.3617270264
 30
0.0
 11
169.1293641289
 21
97.3617270264
 31
0.0
  0
LINE
  5
31F
330
3C
100
AcDbEntity
  8
ﾐﾗｰ転点防止金具_前_1608
  6
CONTINUOUS
 62
     7
100
AcDbLine
 10
165.8293641289
 20
97.3617270264
 30
0.0
 11
165.8293641289
 21
94.8517026318
 31
0.0
  0
LINE
  5
320
330
3C
100
AcDbEntity
  8
ﾐﾗｰ転点防止金具_前_1608
  6
CONTINUOUS
 62
     7
100
AcDbLine
 10
169.1293641289
 20
97.3617270264
 30
0.0
 11
169.1293641289
 21
94.8517026318
 31
0.0
  0
LINE
  5
321
330
3C
100
AcDbEntity
  8
ﾐﾗｰ転点防止金具_前_1608
  6
CONTINUOUS
 62
     7
100
AcDbLine
 10
165.8293641289
 20
94.3194961319
 30
0.0
 11
165.8293641289
 21
89.7335850697
 31
0.0
  0
LINE
  5
322
330
3C
100
AcDbEntity
  8
ﾐﾗｰ転点防止金具_前_1608
  6
CONTINUOUS
 62
     7
100
AcDbLine
 10
169.1293641289
 20
94.3194961319
 30
0.0
 11
169.1293641289
 21
89.7335850697
 31
0.0
  0
LINE
  5
323
330
3C
100
AcDbEntity
  8
ﾐﾗｰ転点防止金具_前_1608
  6
CONTINUOUS
 62
     7
100
AcDbLine
 10
165.8293641289
 20
94.3194961319
 30
0.0
 11
165.8293641289
 21
94.8517026318
 31
0.0
  0
LINE
  5
324
330
3C
100
AcDbEntity
  8
ﾐﾗｰ転点防止金具_前_1608
  6
CONTINUOUS
 62
     7
100
AcDbLine
 10
169.1293641289
 20
94.8517026318
 30
0.0
 11
169.1293641289
 21
94.3194961319
 31
0.0
  0
LINE
  5
325
330
3C
100
AcDbEntity
  8
ﾐﾗｰ転点防止金具_前_1608
  6
CONTINUOUS
 62
     7
100
AcDbLine
 10
169.1293641289
 20
89.7335850697
 30
0.0
 11
169.1293641289
 21
89.1335850697
 31
0.0
  0
LINE
  5
326
330
3C
100
AcDbEntity
  8
ﾐﾗｰ転点防止金具_前_1608
  6
CONTINUOUS
 62
     7
100
AcDbLine
 10
165.8293641289
 20
89.7335850697
 30
0.0
 11
165.8293641289
 21
89.1335850697
 31
0.0
  0
LINE
  5
327
330
3C
100
AcDbEntity
  8
ﾐﾗｰ転点防止金具_前_1608
  6
CONTINUOUS
 62
     7
100
AcDbLine
 10
169.1293641289
 20
89.1335850697
 30
0.0
 11
168.2793641289
 21
89.1335850697
 31
0.0
  0
LINE
  5
328
330
3C
100
AcDbEntity
  8
ﾐﾗｰ転点防止金具_前_1608
  6
CONTINUOUS
 62
     7
100
AcDbLine
 10
169.1293641289
 20
97.8236667927
 30
0.0
 11
169.1293641289
 21
97.3617270264
 31
0.0
  0
LINE
  5
329
330
3C
100
AcDbEntity
  8
ﾐﾗｰ転点防止金具_前_1608
  6
CONTINUOUS
 62
     7
100
AcDbLine
 10
169.1793641289
 20
97.8236667927
 30
0.0
 11
169.1293641289
 21
97.8236667927
 31
0.0
  0
LINE
  5
32A
330
3C
100
AcDbEntity
  8
ﾐﾗｰ転点防止金具_前_1608
  6
CONTINUOUS
 62
     7
100
AcDbLine
 10
169.1793641289
 20
97.5940567333
 30
0.0
 11
169.1293641289
 21
97.5940567333
 31
0.0
  0
ELLIPSE
  5
32B
330
3C
100
AcDbEntity
  8
ﾐﾗｰ転点防止金具_前_1608
  6
CONTINUOUS
 62
     7
100
AcDbEllipse
 10
169.1793641289
 20
97.5940567333
 30
0.0
 11
-0.6000000000000006
 21
-1.387778780781446E-15
 31
0.0
210
0.0
220
0.0
230
1.0
 40
0.3826834324
 41
3.141592653589793
 42
4.712388980384689
  0
LINE
  5
32C
330
3C
100
AcDbEntity
  8
ﾐﾗｰ転点防止金具_前_1608
  6
CONTINUOUS
 62
     7
100
AcDbLine
 10
169.7793641289
 20
97.5940567333
 30
0.0
 11
169.7793641289
 21
97.9164948978
 31
0.0
  0
LINE
  5
32D
330
3C
100
AcDbEntity
  8
ﾐﾗｰ転点防止金具_前_1608
  6
CONTINUOUS
 62
     7
100
AcDbLine
 10
167.4793641289
 20
89.1335850697
 30
0.0
 11
165.8293641289
 21
89.1335850697
 31
0.0
  0
LINE
  5
32E
330
3C
100
AcDbEntity
  8
ﾐﾗｰ転点防止金具_前_1608
  6
CONTINUOUS
 62
     7
100
AcDbLine
 10
168.2793641289
 20
89.1335850697
 30
0.0
 11
168.2793641289
 21
89.7335850697
 31
0.0
  0
LINE
  5
32F
330
3C
100
AcDbEntity
  8
ﾐﾗｰ転点防止金具_前_1608
  6
CONTINUOUS
 62
     7
100
AcDbLine
 10
167.4793641289
 20
89.7335850697
 30
0.0
 11
167.4793641289
 21
89.1335850697
 31
0.0
  0
LINE
  5
330
330
3C
100
AcDbEntity
  8
ﾐﾗｰ転点防止金具_前_1608
  6
CONTINUOUS
 62
     7
100
AcDbLine
 10
168.2793641289
 20
89.8335850697
 30
0.0
 11
168.2793641289
 21
89.7335850697
 31
0.0
  0
LINE
  5
331
330
3C
100
AcDbEntity
  8
ﾐﾗｰ転点防止金具_前_1608
  6
CONTINUOUS
 62
     7
100
AcDbLine
 10
167.4793641289
 20
89.7335850697
 30
0.0
 11
167.4793641289
 21
89.8335850697
 31
0.0
  0
ARC
  5
332
330
3C
100
AcDbEntity
  8
ﾐﾗｰ転点防止金具_前_1608
  6
CONTINUOUS
 62
     7
100
AcDbCircle
 10
167.8793641289
 20
89.8335850697
 30
0.0
 40
0.4000000000000004
100
AcDbArc
 50
0.0
 51
180.0
  0
LINE
  5
333
330
3C
100
AcDbEntity
  8
ﾐﾗｰ転点防止金具_前_1608
  6
CONTINUOUS
 62
     7
100
AcDbLine
 10
168.2793641289
 20
89.7335850697
 30
0.0
 11
167.4793641289
 21
89.7335850697
 31
0.0
  0
LINE
  5
334
330
3C
100
AcDbEntity
  8
ﾐﾗｰ転点防止金具_前_1608
  6
CONTINUOUS
 62
     7
100
AcDbLine
 10
168.2793641289
 20
89.1335850697
 30
0.0
 11
167.4793641289
 21
89.1335850697
 31
0.0
  0
LINE
  5
335
330
3C
100
AcDbEntity
  8
ﾐﾗｰ転点防止金具_前_1608
  6
CONTINUOUS
 62
     7
100
AcDbLine
 10
165.8293641289
 20
97.9147882458
 30
0.0
 11
165.8293641289
 21
97.3617270264
 31
0.0
  0
LINE
  5
336
330
3C
100
AcDbEntity
  8
ﾐﾗｰ転点防止金具_前_1608
  6
CONTINUOUS
 62
     7
100
AcDbLine
 10
169.1793641289
 20
96.9817632415
 30
0.0
 11
169.1793641289
 21
97.5940567333
 31
0.0
  0
LINE
  5
337
330
3C
100
AcDbEntity
  8
ﾐﾗｰ転点防止金具_前_1608
  6
CONTINUOUS
 62
     7
100
AcDbLine
 10
169.7793641289
 20
96.9817632415
 30
0.0
 11
169.7793641289
 21
97.5940567333
 31
0.0
  0
LINE
  5
338
330
3C
100
AcDbEntity
  8
ﾐﾗｰ転点防止金具_前_1608
  6
CONTINUOUS
 62
     7
100
AcDbLine
 10
169.1793641289
 20
96.966539148
 30
0.0
 11
169.1793641289
 21
96.9817632415
 31
0.0
  0
LINE
  5
339
330
3C
100
AcDbEntity
  8
ﾐﾗｰ転点防止金具_前_1608
  6
CONTINUOUS
 62
     7
100
AcDbLine
 10
169.7793641289
 20
96.9817632415
 30
0.0
 11
169.7793641289
 21
96.966539148
 31
0.0
  0
LINE
  5
33A
330
3C
100
AcDbEntity
  8
ﾐﾗｰ転点防止金具_前_1608
  6
CONTINUOUS
 62
     7
100
AcDbLine
 10
169.1793641289
 20
96.966539148
 30
0.0
 11
169.7793641289
 21
96.966539148
 31
0.0
  0
LINE
  5
33C
330
3C
100
AcDbEntity
  8
平座金_並形__6_13_1_0
  6
CONTINUOUS
 62
     7
100
AcDbLine
 10
150.5793641289
 20
97.8647882458
 30
0.0
 11
151.8793641289
 21
97.8647882458
 31
0.0
  0
LINE
  5
33D
330
3C
100
AcDbEntity
  8
平座金_並形__6_13_1_0
  6
CONTINUOUS
 62
     7
100
AcDbLine
 10
151.8793641289
 20
97.8647882458
 30
0.0
 11
151.8793641289
 21
97.9147882458
 31
0.0
  0
LINE
  5
33E
330
3C
100
AcDbEntity
  8
平座金_並形__6_13_1_0
  6
CONTINUOUS
 62
     7
100
AcDbLine
 10
150.5793641289
 20
97.9147882458
 30
0.0
 11
150.5793641289
 21
97.8647882458
 31
0.0
  0
LINE
  5
340
330
3C
100
AcDbEntity
  8
バネ座金_2号__呼び_6_6_
  6
CONTINUOUS
 62
     7
100
AcDbLine
 10
150.6214167628
 20
97.7147882458
 30
0.0
 11
151.8393641289
 21
97.7147882458
 31
0.0
  0
LINE
  5
341
330
3C
100
AcDbEntity
  8
バネ座金_2号__呼び_6_6_
  6
CONTINUOUS
 62
     7
100
AcDbLine
 10
150.6214167628
 20
97.7147882458
 30
0.0
 11
150.6214167628
 21
97.8647882458
 31
0.0
  0
LINE
  5
342
330
3C
100
AcDbEntity
  8
バネ座金_2号__呼び_6_6_
  6
CONTINUOUS
 62
     7
100
AcDbLine
 10
151.8393641289
 20
97.7147882458
 30
0.0
 11
151.8393641289
 21
97.8647882458
 31
0.0
  0
LINE
  5
344
330
3C
100
AcDbEntity
  8
六角穴付キャップボルト_M6_1
  6
CONTINUOUS
 62
     7
100
AcDbLine
 10
150.8043641289
 20
97.1147882458
 30
0.0
 11
151.6543641289
 21
97.1147882458
 31
0.0
  0
LINE
  5
345
330
3C
100
AcDbEntity
  8
六角穴付キャップボルト_M6_1
  6
CONTINUOUS
 62
     7
100
AcDbLine
 10
150.7293641289
 20
97.158089516
 30
0.0
 11
151.7293641289
 21
97.158089516
 31
0.0
  0
LINE
  5
346
330
3C
100
AcDbEntity
  8
六角穴付キャップボルト_M6_1
  6
CONTINUOUS
 62
     7
100
AcDbLine
 10
150.7293641289
 20
97.7147882458
 30
0.0
 11
150.7293641289
 21
97.158089516
 31
0.0
  0
LINE
  5
347
330
3C
100
AcDbEntity
  8
六角穴付キャップボルト_M6_1
  6
CONTINUOUS
 62
     7
100
AcDbLine
 10
151.7293641289
 20
97.158089516
 30
0.0
 11
151.7293641289
 21
97.7147882458
 31
0.0
  0
LINE
  5
348
330
3C
100
AcDbEntity
  8
六角穴付キャップボルト_M6_1
  6
CONTINUOUS
 62
     7
100
AcDbLine
 10
150.7293641289
 20
97.158089516
 30
0.0
 11
150.8043641289
 21
97.1147882458
 31
0.0
  0
LINE
  5
349
330
3C
100
AcDbEntity
  8
六角穴付キャップボルト_M6_1
  6
CONTINUOUS
 62
     7
100
AcDbLine
 10
151.6543641289
 20
97.1147882458
 30
0.0
 11
151.7293641289
 21
97.158089516
 31
0.0
  0
LINE
  5
34A
330
3C
100
AcDbEntity
  8
平座金_並形__6_13_1_0
  6
CONTINUOUS
 62
     7
100
AcDbLine
 10
100.5793641289
 20
97.8647882458
 30
0.0
 11
101.8793641289
 21
97.8647882458
 31
0.0
  0
LINE
  5
34B
330
3C
100
AcDbEntity
  8
平座金_並形__6_13_1_0
  6
CONTINUOUS
 62
     7
100
AcDbLine
 10
101.8793641289
 20
97.8647882458
 30
0.0
 11
101.8793641289
 21
97.9147882458
 31
0.0
  0
LINE
  5
34C
330
3C
100
AcDbEntity
  8
平座金_並形__6_13_1_0
  6
CONTINUOUS
 62
     7
100
AcDbLine
 10
100.5793641289
 20
97.9147882458
 30
0.0
 11
100.5793641289
 21
97.8647882458
 31
0.0
  0
LINE
  5
34D
330
3C
100
AcDbEntity
  8
バネ座金_2号__呼び_6_6_
  6
CONTINUOUS
 62
     7
100
AcDbLine
 10
100.6214167628
 20
97.7147882458
 30
0.0
 11
101.8393641289
 21
97.7147882458
 31
0.0
  0
LINE
  5
34E
330
3C
100
AcDbEntity
  8
バネ座金_2号__呼び_6_6_
  6
CONTINUOUS
 62
     7
100
AcDbLine
 10
100.6214167628
 20
97.7147882458
 30
0.0
 11
100.6214167628
 21
97.8647882458
 31
0.0
  0
LINE
  5
34F
330
3C
100
AcDbEntity
  8
バネ座金_2号__呼び_6_6_
  6
CONTINUOUS
 62
     7
100
AcDbLine
 10
101.8393641289
 20
97.7147882458
 30
0.0
 11
101.8393641289
 21
97.8647882458
 31
0.0
  0
LINE
  5
350
330
3C
100
AcDbEntity
  8
六角穴付キャップボルト_M6_1
  6
CONTINUOUS
 62
     7
100
AcDbLine
 10
100.8043641289
 20
97.1147882458
 30
0.0
 11
101.6543641289
 21
97.1147882458
 31
0.0
  0
LINE
  5
351
330
3C
100
AcDbEntity
  8
六角穴付キャップボルト_M6_1
  6
CONTINUOUS
 62
     7
100
AcDbLine
 10
100.7293641289
 20
97.158089516
 30
0.0
 11
101.7293641289
 21
97.158089516
 31
0.0
  0
LINE
  5
352
330
3C
100
AcDbEntity
  8
六角穴付キャップボルト_M6_1
  6
CONTINUOUS
 62
     7
100
AcDbLine
 10
100.7293641289
 20
97.7147882458
 30
0.0
 11
100.7293641289
 21
97.158089516
 31
0.0
  0
LINE
  5
353
330
3C
100
AcDbEntity
  8
六角穴付キャップボルト_M6_1
  6
CONTINUOUS
 62
     7
100
AcDbLine
 10
101.7293641289
 20
97.158089516
 30
0.0
 11
101.7293641289
 21
97.7147882458
 31
0.0
  0
LINE
  5
354
330
3C
100
AcDbEntity
  8
六角穴付キャップボルト_M6_1
  6
CONTINUOUS
 62
     7
100
AcDbLine
 10
100.7293641289
 20
97.158089516
 30
0.0
 11
100.8043641289
 21
97.1147882458
 31
0.0
  0
LINE
  5
355
330
3C
100
AcDbEntity
  8
六角穴付キャップボルト_M6_1
  6
CONTINUOUS
 62
     7
100
AcDbLine
 10
101.6543641289
 20
97.1147882458
 30
0.0
 11
101.7293641289
 21
97.158089516
 31
0.0
  0
LINE
  5
357
330
3C
100
AcDbEntity
  8
ベースパネル160803_ﾃﾞﾌ_
  6
CONTINUOUS
 62
     7
100
AcDbLine
 10
165.6824967278
 20
97.9147882458
 30
0.0
 11
165.6793641289
 21
97.9147882458
 31
0.0
  0
LINE
  5
358
330
3C
100
AcDbEntity
  8
ベースパネル160803_ﾃﾞﾌ_
  6
CONTINUOUS
 62
     7
100
AcDbLine
 10
165.4993641289
 20
97.9147882458
 30
0.0
 11
86.9593641289
 21
97.9147882458
 31
0.0
  0
LINE
  5
359
330
3C
100
AcDbEntity
  8
ベースパネル160803_ﾃﾞﾌ_
  6
CONTINUOUS
 62
     7
100
AcDbLine
 10
86.7793641289
 20
97.9147882458
 30
0.0
 11
86.77623153
 21
97.9147882458
 31
0.0
  0
LINE
  5
35A
330
3C
100
AcDbEntity
  8
ベースパネル160803_ﾃﾞﾌ_
  6
CONTINUOUS
 62
     7
100
AcDbLine
 10
165.1993641289
 20
102.5647882458
 30
0.0
 11
87.2593641289
 21
102.5647882458
 31
0.0
  0
LINE
  5
35C
330
3C
100
AcDbEntity
  8
転点防止金具_後_160803_
  6
CONTINUOUS
 62
     7
100
AcDbLine
 10
85.7993641289
 20
89.0647882458
 30
0.0
 11
85.0793641289
 21
89.0647882458
 31
0.0
  0
LINE
  5
35D
330
3C
100
AcDbEntity
  8
転点防止金具_後_160803_
  6
CONTINUOUS
 62
     7
100
AcDbLine
 10
84.0793641289
 20
89.0647882458
 30
0.0
 11
83.4993641289
 21
89.0647882458
 31
0.0
  0
LINE
  5
35E
330
3C
100
AcDbEntity
  8
転点防止金具_後_160803_
  6
CONTINUOUS
 62
     7
100
AcDbLine
 10
86.1793641289
 20
89.0647882458
 30
0.0
 11
85.7993641289
 21
89.0647882458
 31
0.0
  0
LINE
  5
35F
330
3C
100
AcDbEntity
  8
転点防止金具_後_160803_
  6
CONTINUOUS
 62
     7
100
AcDbLine
 10
83.4993641289
 20
89.0647882458
 30
0.0
 11
83.4793641289
 21
89.0647882458
 31
0.0
  0
LINE
  5
360
330
3C
100
AcDbEntity
  8
アジャスター_大昌H150_12
  6
CONTINUOUS
 62
     7
100
AcDbLine
 10
83.4793641289
 20
88.0847882458
 30
0.0
 11
84.0793641289
 21
88.0847882458
 31
0.0
  0
LINE
  5
361
330
3C
100
AcDbEntity
  8
アジャスター_大昌H150_12
  6
CONTINUOUS
 62
     7
100
AcDbLine
 10
85.0793641289
 20
88.0847882458
 30
0.0
 11
86.1793641289
 21
88.0847882458
 31
0.0
  0
LINE
  5
362
330
3C
100
AcDbEntity
  8
アジャスター_大昌H150_12
  6
CONTINUOUS
 62
     7
100
AcDbLine
 10
166.2793641289
 20
88.0847882458
 30
0.0
 11
167.3793641289
 21
88.0847882458
 31
0.0
  0
LINE
  5
363
330
3C
100
AcDbEntity
  8
アジャスター_大昌H150_12
  6
CONTINUOUS
 62
     7
100
AcDbLine
 10
168.3793641289
 20
88.0847882458
 30
0.0
 11
168.9793641289
 21
88.0847882458
 31
0.0
  0
LINE
  5
365
330
3C
100
AcDbEntity
  8
ﾐﾗｰ転点防止金具_後_1608
  6
CONTINUOUS
 62
     7
100
AcDbLine
 10
166.6593641289
 20
89.0647882458
 30
0.0
 11
167.3793641289
 21
89.0647882458
 31
0.0
  0
LINE
  5
366
330
3C
100
AcDbEntity
  8
ﾐﾗｰ転点防止金具_後_1608
  6
CONTINUOUS
 62
     7
100
AcDbLine
 10
168.3793641289
 20
89.0647882458
 30
0.0
 11
168.9593641289
 21
89.0647882458
 31
0.0
  0
LINE
  5
367
330
3C
100
AcDbEntity
  8
ﾐﾗｰ転点防止金具_後_1608
  6
CONTINUOUS
 62
     7
100
AcDbLine
 10
166.2793641289
 20
89.0647882458
 30
0.0
 11
166.6593641289
 21
89.0647882458
 31
0.0
  0
LINE
  5
368
330
3C
100
AcDbEntity
  8
ﾐﾗｰ転点防止金具_後_1608
  6
CONTINUOUS
 62
     7
100
AcDbLine
 10
168.9593641289
 20
89.0647882458
 30
0.0
 11
168.9793641289
 21
89.0647882458
 31
0.0
  0
LINE
  5
36A
330
3C
100
AcDbEntity
  8
TE100N_S__150205
  6
CONTINUOUS
 62
     7
100
AcDbLine
 10
83.4793641289
 20
88.0847882458
 30
0.0
 11
83.4793641289
 21
89.1335850697
 31
0.0
  0
LINE
  5
36B
330
3C
100
AcDbEntity
  8
TE100N_S__150205
  6
CONTINUOUS
 62
     7
100
AcDbLine
 10
81.8349719729
 20
87.8847882458
 30
0.0
 11
81.8349719729
 21
96.2847882458
 31
0.0
  0
LINE
  5
36C
330
3C
100
AcDbEntity
  8
TE100N_S__150205
  6
CONTINUOUS
 62
     7
100
AcDbLine
 10
81.685005943
 20
90.3347882458
 30
0.0
 11
81.685005943
 21
93.8347882458
 31
0.0
  0
LINE
  5
36D
330
3C
100
AcDbEntity
  8
TE100N_S__150205
  6
CONTINUOUS
 62
     7
100
AcDbLine
 10
81.6649893517
 20
90.3347882458
 30
0.0
 11
81.6649893517
 21
93.8347882458
 31
0.0
  0
LINE
  5
36E
330
3C
100
AcDbEntity
  8
TE100N_S__150205
  6
CONTINUOUS
 62
     7
100
AcDbLine
 10
86.1793641289
 20
88.0847882458
 30
0.0
 11
86.1793641289
 21
89.1335850697
 31
0.0
  0
LINE
  5
36F
330
3C
100
AcDbEntity
  8
TE100N_S__150205
  6
CONTINUOUS
 62
     7
100
AcDbLine
 10
87.8237562849
 20
87.8847882458
 30
0.0
 11
87.8237562849
 21
96.2847882458
 31
0.0
  0
LINE
  5
370
330
3C
100
AcDbEntity
  8
TE100N_S__150205
  6
CONTINUOUS
 62
     7
100
AcDbLine
 10
87.9737223148
 20
90.3347882458
 30
0.0
 11
87.9737223148
 21
93.8347882458
 31
0.0
  0
LINE
  5
371
330
3C
100
AcDbEntity
  8
TE100N_S__150205
  6
CONTINUOUS
 62
     7
100
AcDbLine
 10
87.9937389062
 20
90.3347882458
 30
0.0
 11
87.9937389062
 21
93.8347882458
 31
0.0
  0
LINE
  5
372
330
3C
100
AcDbEntity
  8
TE100N_S__150205
  6
CONTINUOUS
 62
     7
100
AcDbLine
 10
83.3293641289
 20
97.0847882458
 30
0.0
 11
83.2793641289
 21
97.0847882458
 31
0.0
  0
LINE
  5
373
330
3C
100
AcDbEntity
  8
TE100N_S__150205
  6
CONTINUOUS
 62
     7
100
AcDbLine
 10
82.6793641289
 20
97.0847882458
 30
0.0
 11
82.3233361896
 21
97.0847882458
 31
0.0
  0
LINE
  5
374
330
3C
100
AcDbEntity
  8
TE100N_S__150205
  6
CONTINUOUS
 62
     7
100
AcDbLine
 10
82.3233361896
 20
87.0847882458
 30
0.0
 11
82.7388984382
 21
87.0847882458
 31
0.0
  0
ARC
  5
375
330
3C
100
AcDbEntity
  8
TE100N_S__150205
  6
CONTINUOUS
 62
     7
100
AcDbCircle
 10
82.3233361896
 20
96.6347882458
 30
0.0
 40
0.4500000000000004
100
AcDbArc
 50
90.0
 51
173.8614524269
  0
ARC
  5
376
330
3C
100
AcDbEntity
  8
TE100N_S__150205
  6
CONTINUOUS
 62
     7
100
AcDbCircle
 10
82.3233361896
 20
87.5347882458
 30
0.0
 40
0.4499999999999988
100
AcDbArc
 50
186.1385475731
 51
270.0
  0
ARC
  5
377
330
3C
100
AcDbEntity
  8
TE100N_S__150205
  6
CONTINUOUS
 62
     7
100
AcDbCircle
 10
124.6293641289
 20
92.0847882458
 30
0.0
 40
43.00000000000001
100
AcDbArc
 50
185.6052688132
 51
186.1385475731
  0
ARC
  5
378
330
3C
100
AcDbEntity
  8
TE100N_S__150205
  6
CONTINUOUS
 62
     7
100
AcDbCircle
 10
124.6293641289
 20
92.0847882458
 30
0.0
 40
43.00000000000001
100
AcDbArc
 50
173.8614524269
 51
174.3947311868
  0
ARC
  5
379
330
3C
100
AcDbEntity
  8
TE100N_S__150205
  6
CONTINUOUS
 62
     7
100
AcDbCircle
 10
124.6293641289
 20
92.0847882458
 30
0.0
 40
42.98000000000001
100
AcDbArc
 50
184.7433623302
 51
185.3267093737
  0
ARC
  5
37A
330
3C
100
AcDbEntity
  8
TE100N_S__150205
  6
CONTINUOUS
 62
     7
100
AcDbCircle
 10
124.6293641289
 20
92.0847882458
 30
0.0
 40
42.98
100
AcDbArc
 50
174.6732906263
 51
175.2566376698
  0
LINE
  5
37B
330
3C
100
AcDbEntity
  8
TE100N_S__150205
  6
CONTINUOUS
 62
     7
100
AcDbLine
 10
81.796395555
 20
94.6847882458
 30
0.0
 11
81.7751648014
 21
94.6847882458
 31
0.0
  0
LINE
  5
37C
330
3C
100
AcDbEntity
  8
TE100N_S__150205
  6
CONTINUOUS
 62
     7
100
AcDbLine
 10
81.7751648014
 20
89.4847882458
 30
0.0
 11
81.796395555
 21
89.4847882458
 31
0.0
  0
ARC
  5
37D
330
3C
100
AcDbEntity
  8
TE100N_S__150205
  6
CONTINUOUS
 62
     7
100
AcDbCircle
 10
124.6293641289
 20
92.0847882458
 30
0.0
 40
42.98000000000001
100
AcDbArc
 50
182.3335351207
 51
183.4053177191
  0
ARC
  5
37E
330
3C
100
AcDbEntity
  8
TE100N_S__150205
  6
CONTINUOUS
 62
     7
100
AcDbCircle
 10
124.6293641289
 20
92.0847882458
 30
0.0
 40
42.98000000000001
100
AcDbArc
 50
176.5946822809
 51
177.6664648793
  0
LINE
  5
37F
330
3C
100
AcDbEntity
  8
TE100N_S__150205
  6
CONTINUOUS
 62
     7
100
AcDbLine
 10
81.685005943
 20
93.8347882458
 30
0.0
 11
81.6649893517
 21
93.8347882458
 31
0.0
  0
LINE
  5
380
330
3C
100
AcDbEntity
  8
TE100N_S__150205
  6
CONTINUOUS
 62
     7
100
AcDbLine
 10
81.6649893517
 20
90.3347882458
 30
0.0
 11
81.685005943
 21
90.3347882458
 31
0.0
  0
ARC
  5
381
330
3C
100
AcDbEntity
  8
TE100N_S__150205
  6
CONTINUOUS
 62
     7
100
AcDbCircle
 10
124.6293641289
 20
92.0847882458
 30
0.0
 40
43.0
100
AcDbArc
 50
177.6675508445
 51
182.3324491555
  0
ARC
  5
382
330
3C
100
AcDbEntity
  8
TE100N_S__150205
  6
CONTINUOUS
 62
     7
100
AcDbCircle
 10
81.7751648014
 20
94.6347882458
 30
0.0
 40
0.0500000000000001
100
AcDbArc
 50
90.0
 51
176.5946822808
  0
ARC
  5
383
330
3C
100
AcDbEntity
  8
TE100N_S__150205
  6
CONTINUOUS
 62
     7
100
AcDbCircle
 10
81.7751648014
 20
89.5347882458
 30
0.0
 40
0.0499999999999968
100
AcDbArc
 50
183.4053177192
 51
270.0
  0
ARC
  5
384
330
3C
100
AcDbEntity
  8
TE100N_S__150205
  6
CONTINUOUS
 62
     7
100
AcDbCircle
 10
81.846395555
 20
95.6347882458
 30
0.0
 40
0.0500000000000028
100
AcDbArc
 50
175.2566376697
 51
180.0
  0
ARC
  5
385
330
3C
100
AcDbEntity
  8
TE100N_S__150205
  6
CONTINUOUS
 62
     7
100
AcDbCircle
 10
81.846395555
 20
88.5347882458
 30
0.0
 40
0.0500000000000001
100
AcDbArc
 50
180.0
 51
184.7433623302
  0
LINE
  5
386
330
3C
100
AcDbEntity
  8
TE100N_S__150205
  6
CONTINUOUS
 62
     7
100
AcDbLine
 10
81.796395555
 20
95.6347882458
 30
0.0
 11
81.796395555
 21
88.5347882458
 31
0.0
  0
LINE
  5
387
330
3C
100
AcDbEntity
  8
TE100N_S__150205
  6
CONTINUOUS
 62
     7
100
AcDbLine
 10
86.4198298196
 20
87.0847882458
 30
0.0
 11
87.3353920682
 21
87.0847882458
 31
0.0
  0
LINE
  5
388
330
3C
100
AcDbEntity
  8
TE100N_S__150205
  6
CONTINUOUS
 62
     7
100
AcDbLine
 10
87.3353920682
 20
97.0847882458
 30
0.0
 11
86.6293641289
 21
97.0847882458
 31
0.0
  0
ARC
  5
389
330
3C
100
AcDbEntity
  8
TE100N_S__150205
  6
CONTINUOUS
 62
     7
100
AcDbCircle
 10
87.3353920682
 20
87.5347882458
 30
0.0
 40
0.4500000000000002
100
AcDbArc
 50
270.0
 51
353.8614524269
  0
ARC
  5
38A
330
3C
100
AcDbEntity
  8
TE100N_S__150205
  6
CONTINUOUS
 62
     7
100
AcDbCircle
 10
87.3353920682
 20
96.6347882458
 30
0.0
 40
0.4499999999999988
100
AcDbArc
 50
6.1385475731
 51
90.0
  0
ARC
  5
38B
330
3C
100
AcDbEntity
  8
TE100N_S__150205
  6
CONTINUOUS
 62
     7
100
AcDbCircle
 10
45.0293641289
 20
92.0847882458
 30
0.0
 40
43.00000000000001
100
AcDbArc
 50
353.8614524269
 51
354.3947311868
  0
ARC
  5
38C
330
3C
100
AcDbEntity
  8
TE100N_S__150205
  6
CONTINUOUS
 62
     7
100
AcDbCircle
 10
45.0293641289
 20
92.0847882458
 30
0.0
 40
43.00000000000001
100
AcDbArc
 50
5.6052688132
 51
6.1385475731
  0
ARC
  5
38D
330
3C
100
AcDbEntity
  8
TE100N_S__150205
  6
CONTINUOUS
 62
     7
100
AcDbCircle
 10
45.0293641289
 20
92.0847882458
 30
0.0
 40
42.98000000000002
100
AcDbArc
 50
354.6732906263
 51
355.2566376698
  0
ARC
  5
38E
330
3C
100
AcDbEntity
  8
TE100N_S__150205
  6
CONTINUOUS
 62
     7
100
AcDbCircle
 10
45.0293641289
 20
92.0847882458
 30
0.0
 40
42.98000000000002
100
AcDbArc
 50
4.7433623302
 51
5.3267093737
  0
LINE
  5
38F
330
3C
100
AcDbEntity
  8
TE100N_S__150205
  6
CONTINUOUS
 62
     7
100
AcDbLine
 10
87.8623327029
 20
89.4847882458
 30
0.0
 11
87.8835634564
 21
89.4847882458
 31
0.0
  0
LINE
  5
390
330
3C
100
AcDbEntity
  8
TE100N_S__150205
  6
CONTINUOUS
 62
     7
100
AcDbLine
 10
87.8835634564
 20
94.6847882458
 30
0.0
 11
87.8623327029
 21
94.6847882458
 31
0.0
  0
ARC
  5
391
330
3C
100
AcDbEntity
  8
TE100N_S__150205
  6
CONTINUOUS
 62
     7
100
AcDbCircle
 10
45.0293641289
 20
92.0847882458
 30
0.0
 40
42.98000000000001
100
AcDbArc
 50
356.5946822809
 51
357.6664648793
  0
ARC
  5
392
330
3C
100
AcDbEntity
  8
TE100N_S__150205
  6
CONTINUOUS
 62
     7
100
AcDbCircle
 10
45.0293641289
 20
92.0847882458
 30
0.0
 40
42.98000000000002
100
AcDbArc
 50
2.3335351207
 51
3.4053177191
  0
LINE
  5
393
330
3C
100
AcDbEntity
  8
TE100N_S__150205
  6
CONTINUOUS
 62
     7
100
AcDbLine
 10
87.9737223148
 20
90.3347882458
 30
0.0
 11
87.9937389062
 21
90.3347882458
 31
0.0
  0
LINE
  5
394
330
3C
100
AcDbEntity
  8
TE100N_S__150205
  6
CONTINUOUS
 62
     7
100
AcDbLine
 10
87.9937389062
 20
93.8347882458
 30
0.0
 11
87.9737223148
 21
93.8347882458
 31
0.0
  0
ARC
  5
395
330
3C
100
AcDbEntity
  8
TE100N_S__150205
  6
CONTINUOUS
 62
     7
100
AcDbCircle
 10
45.0293641289
 20
92.0847882458
 30
0.0
 40
43.00000000000001
100
AcDbArc
 50
357.6675508445
 51
0.0
  0
ARC
  5
396
330
3C
100
AcDbEntity
  8
TE100N_S__150205
  6
CONTINUOUS
 62
     7
100
AcDbCircle
 10
45.0293641289
 20
92.0847882458
 30
0.0
 40
43.00000000000001
100
AcDbArc
 50
0.0
 51
2.3324491555
  0
ARC
  5
397
330
3C
100
AcDbEntity
  8
TE100N_S__150205
  6
CONTINUOUS
 62
     7
100
AcDbCircle
 10
87.8835634564
 20
89.5347882458
 30
0.0
 40
0.0500000000000001
100
AcDbArc
 50
270.0
 51
356.5946822808
  0
ARC
  5
398
330
3C
100
AcDbEntity
  8
TE100N_S__150205
  6
CONTINUOUS
 62
     7
100
AcDbCircle
 10
87.8835634564
 20
94.6347882458
 30
0.0
 40
0.0500000000000022
100
AcDbArc
 50
3.4053177192
 51
90.0
  0
ARC
  5
399
330
3C
100
AcDbEntity
  8
TE100N_S__150205
  6
CONTINUOUS
 62
     7
100
AcDbCircle
 10
87.8123327029
 20
88.5347882458
 30
0.0
 40
0.0499999999999974
100
AcDbArc
 50
355.2566376698
 51
0.0
  0
ARC
  5
39A
330
3C
100
AcDbEntity
  8
TE100N_S__150205
  6
CONTINUOUS
 62
     7
100
AcDbCircle
 10
87.8123327029
 20
95.6347882458
 30
0.0
 40
0.0500000000000001
100
AcDbArc
 50
0.0
 51
4.7433623302
  0
LINE
  5
39B
330
3C
100
AcDbEntity
  8
TE100N_S__150205
  6
CONTINUOUS
 62
     7
100
AcDbLine
 10
87.8623327029
 20
88.5347882458
 30
0.0
 11
87.8623327029
 21
95.6347882458
 31
0.0
  0
LINE
  5
39C
330
3C
100
AcDbEntity
  8
TE100N_S__150205
  6
CONTINUOUS
 62
     7
100
AcDbLine
 10
166.2793641289
 20
88.0847882458
 30
0.0
 11
166.2793641289
 21
89.1335850697
 31
0.0
  0
LINE
  5
39D
330
3C
100
AcDbEntity
  8
TE100N_S__150205
  6
CONTINUOUS
 62
     7
100
AcDbLine
 10
164.6349719729
 20
87.8847882458
 30
0.0
 11
164.6349719729
 21
96.2847882458
 31
0.0
  0
LINE
  5
39E
330
3C
100
AcDbEntity
  8
TE100N_S__150205
  6
CONTINUOUS
 62
     7
100
AcDbLine
 10
164.485005943
 20
90.3347882458
 30
0.0
 11
164.485005943
 21
93.8347882458
 31
0.0
  0
LINE
  5
39F
330
3C
100
AcDbEntity
  8
TE100N_S__150205
  6
CONTINUOUS
 62
     7
100
AcDbLine
 10
164.4649893517
 20
90.3347882458
 30
0.0
 11
164.4649893517
 21
93.8347882458
 31
0.0
  0
LINE
  5
3A0
330
3C
100
AcDbEntity
  8
TE100N_S__150205
  6
CONTINUOUS
 62
     7
100
AcDbLine
 10
168.9793641289
 20
88.0847882458
 30
0.0
 11
168.9793641289
 21
89.1335850697
 31
0.0
  0
LINE
  5
3A1
330
3C
100
AcDbEntity
  8
TE100N_S__150205
  6
CONTINUOUS
 62
     7
100
AcDbLine
 10
170.6237562849
 20
87.8847882458
 30
0.0
 11
170.6237562849
 21
96.2847882458
 31
0.0
  0
LINE
  5
3A2
330
3C
100
AcDbEntity
  8
TE100N_S__150205
  6
CONTINUOUS
 62
     7
100
AcDbLine
 10
170.7737223148
 20
90.3347882458
 30
0.0
 11
170.7737223148
 21
93.8347882458
 31
0.0
  0
LINE
  5
3A3
330
3C
100
AcDbEntity
  8
TE100N_S__150205
  6
CONTINUOUS
 62
     7
100
AcDbLine
 10
170.7937389062
 20
90.3347882458
 30
0.0
 11
170.7937389062
 21
93.8347882458
 31
0.0
  0
LINE
  5
3A4
330
3C
100
AcDbEntity
  8
TE100N_S__150205
  6
CONTINUOUS
 62
     7
100
AcDbLine
 10
165.8293641289
 20
97.0847882458
 30
0.0
 11
165.1233361896
 21
97.0847882458
 31
0.0
  0
LINE
  5
3A5
330
3C
100
AcDbEntity
  8
TE100N_S__150205
  6
CONTINUOUS
 62
     7
100
AcDbLine
 10
165.1233361896
 20
87.0847882458
 30
0.0
 11
166.0388984382
 21
87.0847882458
 31
0.0
  0
ARC
  5
3A6
330
3C
100
AcDbEntity
  8
TE100N_S__150205
  6
CONTINUOUS
 62
     7
100
AcDbCircle
 10
165.1233361896
 20
96.6347882458
 30
0.0
 40
0.4500000000000004
100
AcDbArc
 50
90.0
 51
173.8614524269
  0
ARC
  5
3A7
330
3C
100
AcDbEntity
  8
TE100N_S__150205
  6
CONTINUOUS
 62
     7
100
AcDbCircle
 10
165.1233361896
 20
87.5347882458
 30
0.0
 40
0.4499999999999988
100
AcDbArc
 50
186.1385475731
 51
270.0
  0
ARC
  5
3A8
330
3C
100
AcDbEntity
  8
TE100N_S__150205
  6
CONTINUOUS
 62
     7
100
AcDbCircle
 10
207.4293641289
 20
92.0847882458
 30
0.0
 40
43.00000000000001
100
AcDbArc
 50
185.6052688132
 51
186.1385475731
  0
ARC
  5
3A9
330
3C
100
AcDbEntity
  8
TE100N_S__150205
  6
CONTINUOUS
 62
     7
100
AcDbCircle
 10
207.4293641289
 20
92.0847882458
 30
0.0
 40
43.00000000000001
100
AcDbArc
 50
173.8614524269
 51
174.3947311868
  0
ARC
  5
3AA
330
3C
100
AcDbEntity
  8
TE100N_S__150205
  6
CONTINUOUS
 62
     7
100
AcDbCircle
 10
207.4293641289
 20
92.0847882458
 30
0.0
 40
42.98000000000001
100
AcDbArc
 50
184.7433623302
 51
185.3267093737
  0
ARC
  5
3AB
330
3C
100
AcDbEntity
  8
TE100N_S__150205
  6
CONTINUOUS
 62
     7
100
AcDbCircle
 10
207.4293641289
 20
92.0847882458
 30
0.0
 40
42.98000000000001
100
AcDbArc
 50
174.6732906263
 51
175.2566376698
  0
LINE
  5
3AC
330
3C
100
AcDbEntity
  8
TE100N_S__150205
  6
CONTINUOUS
 62
     7
100
AcDbLine
 10
164.596395555
 20
94.6847882458
 30
0.0
 11
164.5751648014
 21
94.6847882458
 31
0.0
  0
LINE
  5
3AD
330
3C
100
AcDbEntity
  8
TE100N_S__150205
  6
CONTINUOUS
 62
     7
100
AcDbLine
 10
164.5751648014
 20
89.4847882458
 30
0.0
 11
164.596395555
 21
89.4847882458
 31
0.0
  0
ARC
  5
3AE
330
3C
100
AcDbEntity
  8
TE100N_S__150205
  6
CONTINUOUS
 62
     7
100
AcDbCircle
 10
207.4293641289
 20
92.0847882458
 30
0.0
 40
42.98000000000002
100
AcDbArc
 50
182.3335351207
 51
183.4053177191
  0
ARC
  5
3AF
330
3C
100
AcDbEntity
  8
TE100N_S__150205
  6
CONTINUOUS
 62
     7
100
AcDbCircle
 10
207.4293641289
 20
92.0847882458
 30
0.0
 40
42.98000000000002
100
AcDbArc
 50
176.5946822809
 51
177.6664648793
  0
LINE
  5
3B0
330
3C
100
AcDbEntity
  8
TE100N_S__150205
  6
CONTINUOUS
 62
     7
100
AcDbLine
 10
164.485005943
 20
93.8347882458
 30
0.0
 11
164.4649893517
 21
93.8347882458
 31
0.0
  0
LINE
  5
3B1
330
3C
100
AcDbEntity
  8
TE100N_S__150205
  6
CONTINUOUS
 62
     7
100
AcDbLine
 10
164.4649893517
 20
90.3347882458
 30
0.0
 11
164.485005943
 21
90.3347882458
 31
0.0
  0
ARC
  5
3B2
330
3C
100
AcDbEntity
  8
TE100N_S__150205
  6
CONTINUOUS
 62
     7
100
AcDbCircle
 10
207.4293641289
 20
92.0847882458
 30
0.0
 40
43.00000000000001
100
AcDbArc
 50
177.6675508445
 51
182.3324491555
  0
ARC
  5
3B3
330
3C
100
AcDbEntity
  8
TE100N_S__150205
  6
CONTINUOUS
 62
     7
100
AcDbCircle
 10
164.5751648014
 20
94.6347882458
 30
0.0
 40
0.0500000000000001
100
AcDbArc
 50
90.0
 51
176.5946822808
  0
ARC
  5
3B4
330
3C
100
AcDbEntity
  8
TE100N_S__150205
  6
CONTINUOUS
 62
     7
100
AcDbCircle
 10
164.5751648014
 20
89.5347882458
 30
0.0
 40
0.0499999999999968
100
AcDbArc
 50
183.4053177192
 51
270.0
  0
ARC
  5
3B5
330
3C
100
AcDbEntity
  8
TE100N_S__150205
  6
CONTINUOUS
 62
     7
100
AcDbCircle
 10
164.646395555
 20
95.6347882458
 30
0.0
 40
0.0500000000000028
100
AcDbArc
 50
175.2566376697
 51
180.0
  0
ARC
  5
3B6
330
3C
100
AcDbEntity
  8
TE100N_S__150205
  6
CONTINUOUS
 62
     7
100
AcDbCircle
 10
164.646395555
 20
88.5347882458
 30
0.0
 40
0.0500000000000001
100
AcDbArc
 50
180.0
 51
184.7433623302
  0
LINE
  5
3B7
330
3C
100
AcDbEntity
  8
TE100N_S__150205
  6
CONTINUOUS
 62
     7
100
AcDbLine
 10
164.596395555
 20
95.6347882458
 30
0.0
 11
164.596395555
 21
88.5347882458
 31
0.0
  0
LINE
  5
3B8
330
3C
100
AcDbEntity
  8
TE100N_S__150205
  6
CONTINUOUS
 62
     7
100
AcDbLine
 10
169.7198298196
 20
87.0847882458
 30
0.0
 11
170.1353920682
 21
87.0847882458
 31
0.0
  0
LINE
  5
3B9
330
3C
100
AcDbEntity
  8
TE100N_S__150205
  6
CONTINUOUS
 62
     7
100
AcDbLine
 10
170.1353920682
 20
97.0847882458
 30
0.0
 11
169.7793641289
 21
97.0847882458
 31
0.0
  0
LINE
  5
3BA
330
3C
100
AcDbEntity
  8
TE100N_S__150205
  6
CONTINUOUS
 62
     7
100
AcDbLine
 10
169.1793641289
 20
97.0847882458
 30
0.0
 11
169.1293641289
 21
97.0847882458
 31
0.0
  0
ARC
  5
3BB
330
3C
100
AcDbEntity
  8
TE100N_S__150205
  6
CONTINUOUS
 62
     7
100
AcDbCircle
 10
170.1353920682
 20
87.5347882458
 30
0.0
 40
0.4500000000000002
100
AcDbArc
 50
270.0
 51
353.8614524269
  0
ARC
  5
3BC
330
3C
100
AcDbEntity
  8
TE100N_S__150205
  6
CONTINUOUS
 62
     7
100
AcDbCircle
 10
170.1353920682
 20
96.6347882458
 30
0.0
 40
0.4499999999999988
100
AcDbArc
 50
6.1385475731
 51
90.0
  0
ARC
  5
3BD
330
3C
100
AcDbEntity
  8
TE100N_S__150205
  6
CONTINUOUS
 62
     7
100
AcDbCircle
 10
127.8293641289
 20
92.0847882458
 30
0.0
 40
43.00000000000001
100
AcDbArc
 50
353.8614524269
 51
354.3947311868
  0
ARC
  5
3BE
330
3C
100
AcDbEntity
  8
TE100N_S__150205
  6
CONTINUOUS
 62
     7
100
AcDbCircle
 10
127.8293641289
 20
92.0847882458
 30
0.0
 40
43.00000000000001
100
AcDbArc
 50
5.6052688132
 51
6.1385475731
  0
ARC
  5
3BF
330
3C
100
AcDbEntity
  8
TE100N_S__150205
  6
CONTINUOUS
 62
     7
100
AcDbCircle
 10
127.8293641289
 20
92.0847882458
 30
0.0
 40
42.98000000000001
100
AcDbArc
 50
354.6732906263
 51
355.2566376698
  0
ARC
  5
3C0
330
3C
100
AcDbEntity
  8
TE100N_S__150205
  6
CONTINUOUS
 62
     7
100
AcDbCircle
 10
127.8293641289
 20
92.0847882458
 30
0.0
 40
42.98000000000001
100
AcDbArc
 50
4.7433623302
 51
5.3267093737
  0
LINE
  5
3C1
330
3C
100
AcDbEntity
  8
TE100N_S__150205
  6
CONTINUOUS
 62
     7
100
AcDbLine
 10
170.6623327029
 20
89.4847882458
 30
0.0
 11
170.6835634564
 21
89.4847882458
 31
0.0
  0
LINE
  5
3C2
330
3C
100
AcDbEntity
  8
TE100N_S__150205
  6
CONTINUOUS
 62
     7
100
AcDbLine
 10
170.6835634564
 20
94.6847882458
 30
0.0
 11
170.6623327029
 21
94.6847882458
 31
0.0
  0
ARC
  5
3C3
330
3C
100
AcDbEntity
  8
TE100N_S__150205
  6
CONTINUOUS
 62
     7
100
AcDbCircle
 10
127.8293641289
 20
92.0847882458
 30
0.0
 40
42.98000000000001
100
AcDbArc
 50
356.5946822809
 51
357.6664648793
  0
ARC
  5
3C4
330
3C
100
AcDbEntity
  8
TE100N_S__150205
  6
CONTINUOUS
 62
     7
100
AcDbCircle
 10
127.8293641289
 20
92.0847882458
 30
0.0
 40
42.98000000000001
100
AcDbArc
 50
2.3335351207
 51
3.4053177191
  0
LINE
  5
3C5
330
3C
100
AcDbEntity
  8
TE100N_S__150205
  6
CONTINUOUS
 62
     7
100
AcDbLine
 10
170.7737223148
 20
90.3347882458
 30
0.0
 11
170.7937389062
 21
90.3347882458
 31
0.0
  0
LINE
  5
3C6
330
3C
100
AcDbEntity
  8
TE100N_S__150205
  6
CONTINUOUS
 62
     7
100
AcDbLine
 10
170.7937389062
 20
93.8347882458
 30
0.0
 11
170.7737223148
 21
93.8347882458
 31
0.0
  0
ARC
  5
3C7
330
3C
100
AcDbEntity
  8
TE100N_S__150205
  6
CONTINUOUS
 62
     7
100
AcDbCircle
 10
127.8293641289
 20
92.0847882458
 30
0.0
 40
43.0
100
AcDbArc
 50
357.6675508445
 51
0.0
  0
ARC
  5
3C8
330
3C
100
AcDbEntity
  8
TE100N_S__150205
  6
CONTINUOUS
 62
     7
100
AcDbCircle
 10
127.8293641289
 20
92.0847882458
 30
0.0
 40
43.0
100
AcDbArc
 50
0.0
 51
2.3324491555
  0
ARC
  5
3C9
330
3C
100
AcDbEntity
  8
TE100N_S__150205
  6
CONTINUOUS
 62
     7
100
AcDbCircle
 10
170.6835634564
 20
89.5347882458
 30
0.0
 40
0.0500000000000001
100
AcDbArc
 50
270.0
 51
356.5946822808
  0
ARC
  5
3CA
330
3C
100
AcDbEntity
  8
TE100N_S__150205
  6
CONTINUOUS
 62
     7
100
AcDbCircle
 10
170.6835634564
 20
94.6347882458
 30
0.0
 40
0.0500000000000022
100
AcDbArc
 50
3.4053177192
 51
90.0
  0
ARC
  5
3CB
330
3C
100
AcDbEntity
  8
TE100N_S__150205
  6
CONTINUOUS
 62
     7
100
AcDbCircle
 10
170.6123327029
 20
88.5347882458
 30
0.0
 40
0.0499999999999974
100
AcDbArc
 50
355.2566376698
 51
0.0
  0
ARC
  5
3CC
330
3C
100
AcDbEntity
  8
TE100N_S__150205
  6
CONTINUOUS
 62
     7
100
AcDbCircle
 10
170.6123327029
 20
95.6347882458
 30
0.0
 40
0.0500000000000001
100
AcDbArc
 50
0.0
 51
4.7433623302
  0
LINE
  5
3CD
330
3C
100
AcDbEntity
  8
TE100N_S__150205
  6
CONTINUOUS
 62
     7
100
AcDbLine
 10
170.6623327029
 20
88.5347882458
 30
0.0
 11
170.6623327029
 21
95.6347882458
 31
0.0
  0
ENDBLK
  5
3CF
330
3C
100
AcDbEntity
  8
0
100
AcDbBlockEnd
  0
BLOCK
  5
5B8
330
3D0
100
AcDbEntity
  8
0
100
AcDbBlockBegin
  2
SE1
 70
     0
 10
0.0
 20
0.0
 30
0.0
  3
SE1
  1

  0
LINE
  5
3D2
330
3D0
100
AcDbEntity
  8
ﾐﾗｰIWBブラケット16080
  6
CONTINUOUS
 62
     7
100
AcDbLine
 10
290.7494667954
 20
229.5570645155
 30
0.0
 11
290.7994667954
 21
229.5570645155
 31
0.0
  0
LINE
  5
3D3
330
3D0
100
AcDbEntity
  8
ﾐﾗｰIWBブラケット16080
  6
CONTINUOUS
 62
     7
100
AcDbLine
 10
290.7994667954
 20
229.5570645155
 30
0.0
 11
290.7994667954
 21
228.7570645155
 31
0.0
  0
LINE
  5
3D4
330
3D0
100
AcDbEntity
  8
ﾐﾗｰIWBブラケット16080
  6
CONTINUOUS
 62
     7
100
AcDbLine
 10
290.7994667954
 20
228.7570645155
 30
0.0
 11
291.0276962202
 21
227.9053007065
 31
0.0
  0
LINE
  5
3D5
330
3D0
100
AcDbEntity
  8
ﾐﾗｰIWBブラケット16080
  6
CONTINUOUS
 62
     7
100
AcDbLine
 10
288.3094667954
 20
201.0570645155
 30
0.0
 11
290.5494667954
 21
201.0570645155
 31
0.0
  0
LINE
  5
3D6
330
3D0
100
AcDbEntity
  8
ﾐﾗｰIWBブラケット16080
  6
CONTINUOUS
 62
     7
100
AcDbLine
 10
288.0794667954
 20
201.0570645155
 30
0.0
 11
288.0794667954
 21
249.0570645155
 31
0.0
  0
LINE
  5
3D7
330
3D0
100
AcDbEntity
  8
ﾐﾗｰIWBブラケット16080
  6
CONTINUOUS
 62
     7
100
AcDbLine
 10
288.0794667954
 20
249.0570645155
 30
0.0
 11
288.3094667954
 21
249.0570645155
 31
0.0
  0
LINE
  5
3D8
330
3D0
100
AcDbEntity
  8
ﾐﾗｰIWBブラケット16080
  6
CONTINUOUS
 62
     7
100
AcDbLine
 10
288.3094667954
 20
201.0570645155
 30
0.0
 11
288.0794667954
 21
201.0570645155
 31
0.0
  0
LINE
  5
3D9
330
3D0
100
AcDbEntity
  8
ﾐﾗｰIWBブラケット16080
  6
CONTINUOUS
 62
     7
100
AcDbLine
 10
292.8418706719
 20
233.3906936322
 30
0.0
 11
290.1523208563
 21
248.6438886043
 31
0.0
  0
LINE
  5
3DA
330
3D0
100
AcDbEntity
  8
ﾐﾗｰIWBブラケット16080
  6
CONTINUOUS
 62
     7
100
AcDbLine
 10
289.6599169798
 20
249.0570645155
 30
0.0
 11
288.3094667954
 21
249.0570645155
 31
0.0
  0
LINE
  5
3DB
330
3D0
100
AcDbEntity
  8
ﾐﾗｰIWBブラケット16080
  6
CONTINUOUS
 62
     7
100
AcDbLine
 10
292.8494667954
 20
228.2570645155
 30
0.0
 11
292.8494667954
 21
233.3038695434
 31
0.0
  0
ARC
  5
3DC
330
3D0
100
AcDbEntity
  8
ﾐﾗｰIWBブラケット16080
  6
CONTINUOUS
 62
     7
100
AcDbCircle
 10
292.3494667954
 20
228.2570645155
 30
0.0
 40
0.5000000000000004
100
AcDbArc
 50
270.0
 51
0.0
  0
ARC
  5
3DD
330
3D0
100
AcDbEntity
  8
ﾐﾗｰIWBブラケット16080
  6
CONTINUOUS
 62
     7
100
AcDbCircle
 10
289.6599169798
 20
248.5570645155
 30
0.0
 40
0.5000000000000117
100
AcDbArc
 50
10.0
 51
90.0
  0
ARC
  5
3DE
330
3D0
100
AcDbEntity
  8
ﾐﾗｰIWBブラケット16080
  6
CONTINUOUS
 62
     7
100
AcDbCircle
 10
292.3494667954
 20
233.3038695434
 30
0.0
 40
0.5000000000000058
100
AcDbArc
 50
0.0
 51
10.0
  0
LINE
  5
3DF
330
3D0
100
AcDbEntity
  8
ﾐﾗｰIWBブラケット16080
  6
CONTINUOUS
 62
     7
100
AcDbLine
 10
290.5494667954
 20
227.1370645155
 30
0.0
 11
290.5494667954
 21
227.5570645155
 31
0.0
  0
LINE
  5
3E0
330
3D0
100
AcDbEntity
  8
ﾐﾗｰIWBブラケット16080
  6
CONTINUOUS
 62
     7
100
AcDbLine
 10
291.2208813855
 20
227.7570645155
 30
0.0
 11
292.3494667954
 21
227.7570645155
 31
0.0
  0
ARC
  5
3E1
330
3D0
100
AcDbEntity
  8
ﾐﾗｰIWBブラケット16080
  6
CONTINUOUS
 62
     7
100
AcDbCircle
 10
291.2208813855
 20
227.9570645155
 30
0.0
 40
0.2000000000000002
100
AcDbArc
 50
195.0
 51
270.0
  0
LINE
  5
3E2
330
3D0
100
AcDbEntity
  8
ﾐﾗｰIWB固定金具160803
  6
CONTINUOUS
 62
     7
100
AcDbLine
 10
293.0494667954
 20
227.5570645155
 30
0.0
 11
293.0494667954
 21
227.3370645155
 31
0.0
  0
LINE
  5
3E3
330
3D0
100
AcDbEntity
  8
ﾐﾗｰIWB固定金具160803
  6
CONTINUOUS
 62
     7
100
AcDbLine
 10
293.0494667954
 20
200.7770645155
 30
0.0
 11
293.0494667954
 21
197.5555568593
 31
0.0
  0
LINE
  5
3E4
330
3D0
100
AcDbEntity
  8
ﾐﾗｰIWB固定金具160803
  6
CONTINUOUS
 62
     7
100
AcDbLine
 10
293.0494667954
 20
227.5570645155
 30
0.0
 11
293.3694667954
 21
227.5570645155
 31
0.0
  0
LINE
  5
3E5
330
3D0
100
AcDbEntity
  8
ﾐﾗｰIWB固定金具160803
  6
CONTINUOUS
 62
     7
100
AcDbLine
 10
296.0321074825
 20
227.5570645155
 30
0.0
 11
293.3694667954
 21
227.5570645155
 31
0.0
  0
LINE
  5
3E6
330
3D0
100
AcDbEntity
  8
ﾐﾗｰIWB固定金具160803
  6
CONTINUOUS
 62
     7
100
AcDbLine
 10
296.3856608731
 20
227.4106179061
 30
0.0
 11
302.7709603453
 21
221.0253184339
 31
0.0
  0
ARC
  5
3E7
330
3D0
100
AcDbEntity
  8
ﾐﾗｰIWB固定金具160803
  6
CONTINUOUS
 62
     7
100
AcDbCircle
 10
296.0321074825
 20
227.0570645155
 30
0.0
 40
0.4999999999999894
100
AcDbArc
 50
45.0
 51
90.0
  0
LINE
  5
3E8
330
3D0
100
AcDbEntity
  8
IWB受金具160803_ﾃﾞﾌ
  6
CONTINUOUS
 62
     7
100
AcDbLine
 10
290.5494667954
 20
227.5570645155
 30
0.0
 11
290.5494667954
 21
229.3570645155
 31
0.0
  0
LINE
  5
3E9
330
3D0
100
AcDbEntity
  8
IWB受金具160803_ﾃﾞﾌ
  6
CONTINUOUS
 62
     7
100
AcDbLine
 10
290.7494667954
 20
229.3570645155
 30
0.0
 11
290.7494667954
 21
227.5570645155
 31
0.0
  0
LINE
  5
3EA
330
3D0
100
AcDbEntity
  8
IWB受金具160803_ﾃﾞﾌ
  6
CONTINUOUS
 62
     7
100
AcDbLine
 10
292.7494667954
 20
200.5570645155
 30
0.0
 11
292.8494667954
 21
200.5570645155
 31
0.0
  0
LINE
  5
3EB
330
3D0
100
AcDbEntity
  8
IWB受金具160803_ﾃﾞﾌ
  6
CONTINUOUS
 62
     7
100
AcDbLine
 10
292.8494667954
 20
200.7570645155
 30
0.0
 11
292.8494667954
 21
200.7770645155
 31
0.0
  0
LINE
  5
3EC
330
3D0
100
AcDbEntity
  8
IWB受金具160803_ﾃﾞﾌ
  6
CONTINUOUS
 62
     7
100
AcDbLine
 10
292.8494667954
 20
227.3370645155
 30
0.0
 11
292.8494667954
 21
227.3570645155
 31
0.0
  0
LINE
  5
3ED
330
3D0
100
AcDbEntity
  8
IWB受金具160803_ﾃﾞﾌ
  6
CONTINUOUS
 62
     7
100
AcDbLine
 10
293.0494667954
 20
227.3370645155
 30
0.0
 11
293.0494667954
 21
200.7770645155
 31
0.0
  0
LINE
  5
3EE
330
3D0
100
AcDbEntity
  8
IWB受金具160803_ﾃﾞﾌ
  6
CONTINUOUS
 62
     7
100
AcDbLine
 10
292.7494667954
 20
227.5570645155
 30
0.0
 11
292.8494667954
 21
227.5570645155
 31
0.0
  0
LINE
  5
3EF
330
3D0
100
AcDbEntity
  8
IWB受金具160803_ﾃﾞﾌ
  6
CONTINUOUS
 62
     7
100
AcDbLine
 10
290.7494667954
 20
227.5570645155
 30
0.0
 11
292.5494667954
 21
227.5570645155
 31
0.0
  0
LINE
  5
3F0
330
3D0
100
AcDbEntity
  8
IWB受金具160803_ﾃﾞﾌ
  6
CONTINUOUS
 62
     7
100
AcDbLine
 10
292.5494667954
 20
227.3570645155
 30
0.0
 11
290.7494667954
 21
227.3570645155
 31
0.0
  0
LINE
  5
3F1
330
3D0
100
AcDbEntity
  8
IWB受金具160803_ﾃﾞﾌ
  6
CONTINUOUS
 62
     7
100
AcDbLine
 10
292.8494667954
 20
227.3570645155
 30
0.0
 11
292.7494667954
 21
227.3570645155
 31
0.0
  0
LINE
  5
3F2
330
3D0
100
AcDbEntity
  8
IWB受金具160803_ﾃﾞﾌ
  6
CONTINUOUS
 62
     7
100
AcDbLine
 10
290.7494667954
 20
227.3370645155
 30
0.0
 11
292.8494667954
 21
227.3370645155
 31
0.0
  0
LINE
  5
3F3
330
3D0
100
AcDbEntity
  8
IWB受金具160803_ﾃﾞﾌ
  6
CONTINUOUS
 62
     7
100
AcDbLine
 10
290.7494667954
 20
200.7770645155
 30
0.0
 11
292.8494667954
 21
200.7770645155
 31
0.0
  0
LINE
  5
3F4
330
3D0
100
AcDbEntity
  8
IWB受金具160803_ﾃﾞﾌ
  6
CONTINUOUS
 62
     7
100
AcDbLine
 10
290.5494667954
 20
227.1370645155
 30
0.0
 11
290.5494667954
 21
200.9770645155
 31
0.0
  0
LINE
  5
3F5
330
3D0
100
AcDbEntity
  8
IWB受金具160803_ﾃﾞﾌ
  6
CONTINUOUS
 62
     7
100
AcDbLine
 10
292.5494667954
 20
200.5570645155
 30
0.0
 11
290.7494667954
 21
200.5570645155
 31
0.0
  0
LINE
  5
3F6
330
3D0
100
AcDbEntity
  8
IWB受金具160803_ﾃﾞﾌ
  6
CONTINUOUS
 62
     7
100
AcDbLine
 10
290.7494667954
 20
200.7570645155
 30
0.0
 11
292.5494667954
 21
200.7570645155
 31
0.0
  0
LINE
  5
3F7
330
3D0
100
AcDbEntity
  8
IWB受金具160803_ﾃﾞﾌ
  6
CONTINUOUS
 62
     7
100
AcDbLine
 10
292.7494667954
 20
200.7570645155
 30
0.0
 11
292.8494667954
 21
200.7570645155
 31
0.0
  0
ARC
  5
3F8
330
3D0
100
AcDbEntity
  8
IWB受金具160803_ﾃﾞﾌ
  6
CONTINUOUS
 62
     7
100
AcDbCircle
 10
292.8494667954
 20
200.7570645155
 30
0.0
 40
0.2000000000000002
100
AcDbArc
 50
270.0
 51
0.0
  0
ARC
  5
3F9
330
3D0
100
AcDbEntity
  8
IWB受金具160803_ﾃﾞﾌ
  6
CONTINUOUS
 62
     7
100
AcDbCircle
 10
292.8494667954
 20
227.3570645155
 30
0.0
 40
0.2000000000000002
100
AcDbArc
 50
0.0
 51
90.0
  0
LINE
  5
3FA
330
3D0
100
AcDbEntity
  8
IWB受金具160803_ﾃﾞﾌ
  6
CONTINUOUS
 62
     7
100
AcDbLine
 10
292.8494667954
 20
227.3370645155
 30
0.0
 11
293.0494667954
 21
227.3370645155
 31
0.0
  0
LINE
  5
3FB
330
3D0
100
AcDbEntity
  8
IWB受金具160803_ﾃﾞﾌ
  6
CONTINUOUS
 62
     7
100
AcDbLine
 10
293.0494667954
 20
200.7770645155
 30
0.0
 11
292.8494667954
 21
200.7770645155
 31
0.0
  0
ARC
  5
3FC
330
3D0
100
AcDbEntity
  8
IWB受金具160803_ﾃﾞﾌ
  6
CONTINUOUS
 62
     7
100
AcDbCircle
 10
290.7494667954
 20
227.5570645155
 30
0.0
 40
0.2000000000000002
100
AcDbArc
 50
180.0
 51
270.0
  0
LINE
  5
3FD
330
3D0
100
AcDbEntity
  8
IWB受金具160803_ﾃﾞﾌ
  6
CONTINUOUS
 62
     7
100
AcDbLine
 10
290.5494667954
 20
200.5570645155
 30
0.0
 11
290.7494667954
 21
200.5570645155
 31
0.0
  0
LINE
  5
3FE
330
3D0
100
AcDbEntity
  8
IWB受金具160803_ﾃﾞﾌ
  6
CONTINUOUS
 62
     7
100
AcDbLine
 10
290.7494667954
 20
200.7570645155
 30
0.0
 11
290.5494667954
 21
200.7570645155
 31
0.0
  0
LINE
  5
3FF
330
3D0
100
AcDbEntity
  8
IWB受金具160803_ﾃﾞﾌ
  6
CONTINUOUS
 62
     7
100
AcDbLine
 10
290.5494667954
 20
200.7570645155
 30
0.0
 11
290.5494667954
 21
200.5570645155
 31
0.0
  0
LINE
  5
400
330
3D0
100
AcDbEntity
  8
IWB受金具160803_ﾃﾞﾌ
  6
CONTINUOUS
 62
     7
100
AcDbLine
 10
292.7494667954
 20
200.7570645155
 30
0.0
 11
292.5494667954
 21
200.7570645155
 31
0.0
  0
LINE
  5
401
330
3D0
100
AcDbEntity
  8
IWB受金具160803_ﾃﾞﾌ
  6
CONTINUOUS
 62
     7
100
AcDbLine
 10
292.5494667954
 20
200.5570645155
 30
0.0
 11
292.7494667954
 21
200.5570645155
 31
0.0
  0
LINE
  5
402
330
3D0
100
AcDbEntity
  8
IWB受金具160803_ﾃﾞﾌ
  6
CONTINUOUS
 62
     7
100
AcDbLine
 10
292.7494667954
 20
200.5570645155
 30
0.0
 11
292.7494667954
 21
200.7570645155
 31
0.0
  0
ARC
  5
403
330
3D0
100
AcDbEntity
  8
IWB受金具160803_ﾃﾞﾌ
  6
CONTINUOUS
 62
     7
100
AcDbCircle
 10
290.7494667954
 20
200.9770645155
 30
0.0
 40
0.2000000000000002
100
AcDbArc
 50
180.0
 51
270.0
  0
LINE
  5
404
330
3D0
100
AcDbEntity
  8
IWB受金具160803_ﾃﾞﾌ
  6
CONTINUOUS
 62
     7
100
AcDbLine
 10
292.7494667954
 20
227.5570645155
 30
0.0
 11
292.5494667954
 21
227.5570645155
 31
0.0
  0
LINE
  5
405
330
3D0
100
AcDbEntity
  8
IWB受金具160803_ﾃﾞﾌ
  6
CONTINUOUS
 62
     7
100
AcDbLine
 10
292.5494667954
 20
227.3570645155
 30
0.0
 11
292.7494667954
 21
227.3570645155
 31
0.0
  0
LINE
  5
406
330
3D0
100
AcDbEntity
  8
IWB受金具160803_ﾃﾞﾌ
  6
CONTINUOUS
 62
     7
100
AcDbLine
 10
292.7494667954
 20
227.3570645155
 30
0.0
 11
292.7494667954
 21
227.5570645155
 31
0.0
  0
ARC
  5
407
330
3D0
100
AcDbEntity
  8
IWB受金具160803_ﾃﾞﾌ
  6
CONTINUOUS
 62
     7
100
AcDbCircle
 10
290.7494667954
 20
227.1370645155
 30
0.0
 40
0.2000000000000002
100
AcDbArc
 50
90.0
 51
180.0
  0
LINE
  5
408
330
3D0
100
AcDbEntity
  8
IWB受金具160803_ﾃﾞﾌ
  6
CONTINUOUS
 62
     7
100
AcDbLine
 10
290.5494667954
 20
229.8570645155
 30
0.0
 11
290.5494667954
 21
229.3570645155
 31
0.0
  0
LINE
  5
409
330
3D0
100
AcDbEntity
  8
IWB受金具160803_ﾃﾞﾌ
  6
CONTINUOUS
 62
     7
100
AcDbLine
 10
290.7494667954
 20
229.3570645155
 30
0.0
 11
290.7494667954
 21
229.8570645155
 31
0.0
  0
LINE
  5
40A
330
3D0
100
AcDbEntity
  8
IWB受金具160803_ﾃﾞﾌ
  6
CONTINUOUS
 62
     7
100
AcDbLine
 10
290.7494667954
 20
229.8570645155
 30
0.0
 11
290.5494667954
 21
229.8570645155
 31
0.0
  0
LINE
  5
40B
330
3D0
100
AcDbEntity
  8
ﾐﾗｰ棚板ブラケット150407
  6
CONTINUOUS
 62
     7
100
AcDbLine
 10
279.2166698504
 20
133.7486592135
 30
0.0
 11
278.3635327654
 21
133.5174865841
 31
0.0
  0
LINE
  5
40C
330
3D0
100
AcDbEntity
  8
ﾐﾗｰ棚板ブラケット150407
  6
CONTINUOUS
 62
     7
100
AcDbLine
 10
279.2166698504
 20
135.9873843124
 30
0.0
 11
279.2166698504
 21
133.7486592135
 31
0.0
  0
ARC
  5
40D
330
3D0
100
AcDbEntity
  8
ﾐﾗｰ棚板ブラケット150407
  6
CONTINUOUS
 62
     7
100
AcDbCircle
 10
277.961681845
 20
136.5874644855
 30
0.0
 40
3.09616673935915
100
AcDbArc
 50
275.3505360401
 51
277.4574469296
  0
LINE
  5
40E
330
3D0
100
AcDbEntity
  8
ﾐﾗｰ棚板ブラケット150407
  6
CONTINUOUS
 62
     7
100
AcDbLine
 10
301.1974380197
 20
139.7047383304
 30
0.0
 11
279.2166698504
 21
133.7486592135
 31
0.0
  0
ARC
  5
40F
330
3D0
100
AcDbEntity
  8
ﾐﾗｰ棚板ブラケット150407
  6
CONTINUOUS
 62
     7
100
AcDbCircle
 10
301.0666698504
 20
140.1873351454
 30
0.0
 40
0.5000000000000004
100
AcDbArc
 50
285.1612425781
 51
348.1650099775
  0
LINE
  5
410
330
3D0
100
AcDbEntity
  8
製品デカル150204_座り_ぶ
  6
CONTINUOUS
 62
     7
100
AcDbLine
 10
305.0666698504
 20
142.0847882458
 30
0.0
 11
305.0666698504
 21
142.1047882458
 31
0.0
  0
LINE
  5
411
330
3D0
100
AcDbEntity
  8
製品デカル150204_座り_ぶ
  6
CONTINUOUS
 62
     7
100
AcDbLine
 10
305.2666698504
 20
142.1047882458
 30
0.0
 11
309.2666698504
 21
142.1047882458
 31
0.0
  0
LINE
  5
412
330
3D0
100
AcDbEntity
  8
製品デカル150204_座り_ぶ
  6
CONTINUOUS
 62
     7
100
AcDbLine
 10
309.2666698504
 20
142.1047882458
 30
0.0
 11
309.4666698504
 21
142.1047882458
 31
0.0
  0
LINE
  5
413
330
3D0
100
AcDbEntity
  8
製品デカル150204_座り_ぶ
  6
CONTINUOUS
 62
     7
100
AcDbLine
 10
305.0666698504
 20
142.1047882458
 30
0.0
 11
305.2666698504
 21
142.1047882458
 31
0.0
  0
LINE
  5
414
330
3D0
100
AcDbEntity
  8
製品デカル150204_座り_ぶ
  6
CONTINUOUS
 62
     7
100
AcDbLine
 10
309.4666698504
 20
142.1047882458
 30
0.0
 11
309.4666698504
 21
142.0847882458
 31
0.0
  0
LINE
  5
415
330
3D0
100
AcDbEntity
  8
棚板本体160803_ﾃﾞﾌｫﾙ_竡_疎__退_
  6
CONTINUOUS
 62
     7
100
AcDbLine
 10
309.1966698504
 20
140.2147882458
 30
0.0
 11
309.1966698504
 21
140.1647882458
 31
0.0
  0
LINE
  5
416
330
3D0
100
AcDbEntity
  8
棚板本体160803_ﾃﾞﾌｫﾙ_竡_疎__退_
  6
CONTINUOUS
 62
     7
100
AcDbLine
 10
310.0466698504
 20
140.0847882458
 30
0.0
 11
309.5666698504
 21
140.0847882458
 31
0.0
  0
LINE
  5
417
330
3D0
100
AcDbEntity
  8
棚板本体160803_ﾃﾞﾌｫﾙ_竡_疎__退_
  6
CONTINUOUS
 62
     7
100
AcDbLine
 10
309.5666698504
 20
140.1647882458
 30
0.0
 11
310.0466698504
 21
140.1647882458
 31
0.0
  0
ARC
  5
418
330
3D0
100
AcDbEntity
  8
棚板本体160803_ﾃﾞﾌｫﾙ_竡_疎__退_
  6
CONTINUOUS
 62
     7
100
AcDbCircle
 10
309.1966698504
 20
140.1647882458
 30
0.0
 40
0.0799999999998908
100
AcDbArc
 50
179.9999999999
 51
270.0000000001
  0
LINE
  5
419
330
3D0
100
AcDbEntity
  8
棚板本体160803_ﾃﾞﾌｫﾙ_竡_疎__退_
  6
CONTINUOUS
 62
     7
100
AcDbLine
 10
309.0666698504
 20
140.0847882458
 30
0.0
 11
280.7731275957
 21
140.0847882458
 31
0.0
  0
LINE
  5
41A
330
3D0
100
AcDbEntity
  8
棚板本体160803_ﾃﾞﾌｫﾙ_竡_疎__退_
  6
CONTINUOUS
 62
     7
100
AcDbLine
 10
309.0666698504
 20
140.1647882458
 30
0.0
 11
309.0666698504
 21
140.2147882458
 31
0.0
  0
LINE
  5
41B
330
3D0
100
AcDbEntity
  8
棚板本体160803_ﾃﾞﾌｫﾙ_竡_疎__退_
  6
CONTINUOUS
 62
     7
100
AcDbLine
 10
309.0666698504
 20
140.2147882458
 30
0.0
 11
310.0366698504
 21
140.2147882458
 31
0.0
  0
ARC
  5
41C
330
3D0
100
AcDbEntity
  8
棚板本体160803_ﾃﾞﾌｫﾙ_竡_疎__退_
  6
CONTINUOUS
 62
     7
100
AcDbCircle
 10
310.0366698504
 20
140.5147882458
 30
0.0
 40
0.3000000000000003
100
AcDbArc
 50
270.0
 51
0.0
  0
LINE
  5
41D
330
3D0
100
AcDbEntity
  8
棚板本体160803_ﾃﾞﾌｫﾙ_竡_疎__退_
  6
CONTINUOUS
 62
     7
100
AcDbLine
 10
310.3366698504
 20
140.5147882458
 30
0.0
 11
310.3366698504
 21
141.5511686462
 31
0.0
  0
LINE
  5
41E
330
3D0
100
AcDbEntity
  8
棚板本体160803_ﾃﾞﾌｫﾙ_竡_疎__退_
  6
CONTINUOUS
 62
     7
100
AcDbLine
 10
310.3366698504
 20
141.5511686462
 30
0.0
 11
309.9666698504
 21
141.7647882458
 31
0.0
  0
LINE
  5
41F
330
3D0
100
AcDbEntity
  8
棚板本体160803_ﾃﾞﾌｫﾙ_竡_疎__退_
  6
CONTINUOUS
 62
     7
100
AcDbLine
 10
309.9666698504
 20
141.7647882458
 30
0.0
 11
309.9666698504
 21
142.0047882458
 31
0.0
  0
LINE
  5
420
330
3D0
100
AcDbEntity
  8
棚板本体160803_ﾃﾞﾌｫﾙ_竡_疎__退_
  6
CONTINUOUS
 62
     7
100
AcDbLine
 10
310.4666698504
 20
141.6647882458
 30
0.0
 11
310.4666698504
 21
140.5047882458
 31
0.0
  0
LINE
  5
421
330
3D0
100
AcDbEntity
  8
棚板本体160803_ﾃﾞﾌｫﾙ_竡_疎__退_
  6
CONTINUOUS
 62
     7
100
AcDbLine
 10
310.3866698504
 20
140.5047882458
 30
0.0
 11
310.3866698504
 21
141.6647882458
 31
0.0
  0
LINE
  5
422
330
3D0
100
AcDbEntity
  8
棚板本体160803_ﾃﾞﾌｫﾙ_竡_疎__退_
  6
CONTINUOUS
 62
     7
100
AcDbLine
 10
310.0466698504
 20
142.0047882458
 30
0.0
 11
309.9666698504
 21
142.0047882458
 31
0.0
  0
LINE
  5
423
330
3D0
100
AcDbEntity
  8
棚板本体160803_ﾃﾞﾌｫﾙ_竡_疎__退_
  6
CONTINUOUS
 62
     7
100
AcDbLine
 10
309.9666698504
 20
142.0847882458
 30
0.0
 11
310.0466698504
 21
142.0847882458
 31
0.0
  0
LINE
  5
424
330
3D0
100
AcDbEntity
  8
棚板本体160803_ﾃﾞﾌｫﾙ_竡_疎__退_
  6
CONTINUOUS
 62
     7
100
AcDbLine
 10
281.5328563267
 20
142.0847882458
 30
0.0
 11
309.9666698504
 21
142.0847882458
 31
0.0
  0
LINE
  5
425
330
3D0
100
AcDbEntity
  8
棚板本体160803_ﾃﾞﾌｫﾙ_竡_疎__退_
  6
CONTINUOUS
 62
     7
100
AcDbLine
 10
309.9666698504
 20
142.057703272
 30
0.0
 11
309.9666698504
 21
142.0047882458
 31
0.0
  0
ARC
  5
426
330
3D0
100
AcDbEntity
  8
棚板本体160803_ﾃﾞﾌｫﾙ_竡_疎__退_
  6
CONTINUOUS
 62
     7
100
AcDbCircle
 10
310.0466698504
 20
141.6647882458
 30
0.0
 40
0.4199999999999982
100
AcDbArc
 50
0.0
 51
90.0
  0
ARC
  5
427
330
3D0
100
AcDbEntity
  8
棚板本体160803_ﾃﾞﾌｫﾙ_竡_疎__退_
  6
CONTINUOUS
 62
     7
100
AcDbCircle
 10
310.0466698504
 20
141.6647882458
 30
0.0
 40
0.340000000000007
100
AcDbArc
 50
0.0
 51
90.0
  0
ARC
  5
428
330
3D0
100
AcDbEntity
  8
棚板本体160803_ﾃﾞﾌｫﾙ_竡_疎__退_
  6
CONTINUOUS
 62
     7
100
AcDbCircle
 10
310.0466698504
 20
140.5047882458
 30
0.0
 40
0.4199999999999982
100
AcDbArc
 50
270.0
 51
0.0
  0
ARC
  5
429
330
3D0
100
AcDbEntity
  8
棚板本体160803_ﾃﾞﾌｫﾙ_竡_疎__退_
  6
CONTINUOUS
 62
     7
100
AcDbCircle
 10
310.0466698504
 20
140.5047882458
 30
0.0
 40
0.340000000000007
100
AcDbArc
 50
270.0
 51
0.0
  0
LINE
  5
42A
330
3D0
100
AcDbEntity
  8
棚板本体160803_ﾃﾞﾌｫﾙ_竡_疎__退_
  6
CONTINUOUS
 62
     7
100
AcDbLine
 10
309.0666698504
 20
140.1647882458
 30
0.0
 11
309.0666698504
 21
140.0847882458
 31
0.0
  0
LINE
  5
42B
330
3D0
100
AcDbEntity
  8
棚板本体160803_ﾃﾞﾌｫﾙ_竡_疎__退_
  6
CONTINUOUS
 62
     7
100
AcDbLine
 10
309.9666698504
 20
142.057703272
 30
0.0
 11
309.9666698504
 21
142.0847882458
 31
0.0
  0
LINE
  5
42C
330
3D0
100
AcDbEntity
  8
棚板本体160803_ﾃﾞﾌｫﾙ_竡_疎__退_
  6
CONTINUOUS
 62
     7
100
AcDbLine
 10
309.1966698504
 20
140.0847882458
 30
0.0
 11
309.5666698504
 21
140.0847882458
 31
0.0
  0
LINE
  5
42D
330
3D0
100
AcDbEntity
  8
棚板本体160803_ﾃﾞﾌｫﾙ_竡_疎__退_
  6
CONTINUOUS
 62
     7
100
AcDbLine
 10
309.5666698504
 20
140.0847882458
 30
0.0
 11
309.5666698504
 21
140.1647882458
 31
0.0
  0
LINE
  5
42E
330
3D0
100
AcDbEntity
  8
棚板本体160803_ﾃﾞﾌｫﾙ_竡_疎__退_
  6
CONTINUOUS
 62
     7
100
AcDbLine
 10
309.5666698504
 20
140.1647882458
 30
0.0
 11
309.1966698504
 21
140.1647882458
 31
0.0
  0
LINE
  5
42F
330
3D0
100
AcDbEntity
  8
棚板本体160803_ﾃﾞﾌｫﾙ_竡_疎__退_
  6
CONTINUOUS
 62
     7
100
AcDbLine
 10
309.1966698504
 20
140.0847882458
 30
0.0
 11
309.1966698504
 21
140.113858664
 31
0.0
  0
LINE
  5
430
330
3D0
100
AcDbEntity
  8
棚板本体160803_ﾃﾞﾌｫﾙ_竡_疎__退_
  6
CONTINUOUS
 62
     7
100
AcDbLine
 10
309.1966698504
 20
140.113858664
 30
0.0
 11
309.1966698504
 21
140.1647882458
 31
0.0
  0
LINE
  5
431
330
3D0
100
AcDbEntity
  8
棚板本体160803_ﾃﾞﾌｫﾙ_竡_疎__退_
  6
CONTINUOUS
 62
     7
100
AcDbLine
 10
309.1166698504
 20
140.2147882458
 30
0.0
 11
309.1166698504
 21
140.1647882458
 31
0.0
  0
LINE
  5
432
330
3D0
100
AcDbEntity
  8
棚板本体160803_ﾃﾞﾌｫﾙ_竡_疎__退_
  6
CONTINUOUS
 62
     7
100
AcDbLine
 10
309.1166698504
 20
140.1647882458
 30
0.0
 11
309.1457402686
 21
140.1647882458
 31
0.0
  0
LINE
  5
433
330
3D0
100
AcDbEntity
  8
棚板本体160803_ﾃﾞﾌｫﾙ_竡_疎__退_
  6
CONTINUOUS
 62
     7
100
AcDbLine
 10
309.1457402686
 20
140.1647882458
 30
0.0
 11
309.1966698504
 21
140.1647882458
 31
0.0
  0
LINE
  5
434
330
3D0
100
AcDbEntity
  8
ブラインドリベット150204_
  6
CONTINUOUS
 62
     7
100
AcDbLine
 10
272.586677344
 20
118.2803610914
 30
0.0
 11
272.6932094327
 21
118.5608087944
 31
0.0
  0
ARC
  5
435
330
3D0
100
AcDbEntity
  8
ブラインドリベット150204_
  6
CONTINUOUS
 62
     7
100
AcDbCircle
 10
272.4400274787
 20
118.6569835967
 30
0.0
 40
0.2708333333333336
100
AcDbArc
 50
339.2
 51
15.927267076
  0
ARC
  5
436
330
3D0
100
AcDbEntity
  8
ブラインドリベット150204_
  6
CONTINUOUS
 62
     7
100
AcDbCircle
 10
272.33349539
 20
118.3765358938
 30
0.0
 40
0.2708333333333314
100
AcDbArc
 50
302.472732924
 51
339.2
  0
LINE
  5
437
330
3D0
100
AcDbEntity
  8
ブラインドリベット150204_
  6
CONTINUOUS
 62
     7
100
AcDbLine
 10
272.6883336662
 20
118.7445130111
 30
0.0
 11
272.6694433055
 21
118.751688786
 31
0.0
  0
LINE
  5
438
330
3D0
100
AcDbEntity
  8
ブラインドリベット150204_
  6
CONTINUOUS
 62
     7
100
AcDbLine
 10
272.4421748495
 20
118.1534003531
 30
0.0
 11
272.4610652102
 21
118.1462245782
 31
0.0
  0
ARC
  5
439
330
3D0
100
AcDbEntity
  8
ブラインドリベット150204_
  6
CONTINUOUS
 62
     7
100
AcDbCircle
 10
272.4681673495
 20
118.1649210917
 30
0.0
 40
0.0200000000000015
100
AcDbArc
 50
249.2000000002
 51
302.472732924
  0
ARC
  5
43A
330
3D0
100
AcDbEntity
  8
ブラインドリベット150204_
  6
CONTINUOUS
 62
     7
100
AcDbCircle
 10
272.6812315269
 20
118.7258164976
 30
0.0
 40
0.0200000000000009
100
AcDbArc
 50
15.9272670759
 51
69.2
  0
LINE
  5
43B
330
3D0
100
AcDbEntity
  8
ブラインドリベット150204_
  6
CONTINUOUS
 62
     7
100
AcDbLine
 10
294.6033090133
 20
176.239553028
 30
0.0
 11
294.7098411021
 21
176.5200007309
 31
0.0
  0
ARC
  5
43C
330
3D0
100
AcDbEntity
  8
ブラインドリベット150204_
  6
CONTINUOUS
 62
     7
100
AcDbCircle
 10
294.456659148
 20
176.6161755332
 30
0.0
 40
0.270833333333331
100
AcDbArc
 50
339.2
 51
15.927267076
  0
ARC
  5
43D
330
3D0
100
AcDbEntity
  8
ブラインドリベット150204_
  6
CONTINUOUS
 62
     7
100
AcDbCircle
 10
294.3501270593
 20
176.3357278303
 30
0.0
 40
0.2708333333333314
100
AcDbArc
 50
302.472732924
 51
339.2
  0
LINE
  5
43E
330
3D0
100
AcDbEntity
  8
ブラインドリベット150204_
  6
CONTINUOUS
 62
     7
100
AcDbLine
 10
294.7049653355
 20
176.7037049476
 30
0.0
 11
294.6860749748
 21
176.7108807225
 31
0.0
  0
LINE
  5
43F
330
3D0
100
AcDbEntity
  8
ブラインドリベット150204_
  6
CONTINUOUS
 62
     7
100
AcDbLine
 10
294.4588065188
 20
176.1125922896
 30
0.0
 11
294.4776968795
 21
176.1054165147
 31
0.0
  0
ARC
  5
440
330
3D0
100
AcDbEntity
  8
ブラインドリベット150204_
  6
CONTINUOUS
 62
     7
100
AcDbCircle
 10
294.4847990188
 20
176.1241130283
 30
0.0
 40
0.0199999999999953
100
AcDbArc
 50
249.2
 51
302.4727329239
  0
ARC
  5
441
330
3D0
100
AcDbEntity
  8
ブラインドリベット150204_
  6
CONTINUOUS
 62
     7
100
AcDbCircle
 10
294.6978631962
 20
176.6850084341
 30
0.0
 40
0.0199999999999983
100
AcDbArc
 50
15.9272670761
 51
69.2
  0
LINE
  5
442
330
3D0
100
AcDbEntity
  8
ブラインドリベット150204_
  6
CONTINUOUS
 62
     7
100
AcDbLine
 10
316.6199406826
 20
234.1987449645
 30
0.0
 11
316.7264727714
 21
234.4791926675
 31
0.0
  0
ARC
  5
443
330
3D0
100
AcDbEntity
  8
ブラインドリベット150204_
  6
CONTINUOUS
 62
     7
100
AcDbCircle
 10
316.4732908173
 20
234.5753674698
 30
0.0
 40
0.270833333333331
100
AcDbArc
 50
339.2
 51
15.927267076
  0
ARC
  5
444
330
3D0
100
AcDbEntity
  8
ブラインドリベット150204_
  6
CONTINUOUS
 62
     7
100
AcDbCircle
 10
316.3667587286
 20
234.2949197669
 30
0.0
 40
0.2708333333333408
100
AcDbArc
 50
302.472732924
 51
339.2
  0
LINE
  5
445
330
3D0
100
AcDbEntity
  8
ブラインドリベット150204_
  6
CONTINUOUS
 62
     7
100
AcDbLine
 10
316.7215970048
 20
234.6628968842
 30
0.0
 11
316.7027066441
 21
234.6700726591
 31
0.0
  0
LINE
  5
446
330
3D0
100
AcDbEntity
  8
ブラインドリベット150204_
  6
CONTINUOUS
 62
     7
100
AcDbLine
 10
316.4754381881
 20
234.0717842262
 30
0.0
 11
316.4943285488
 21
234.0646084513
 31
0.0
  0
ARC
  5
447
330
3D0
100
AcDbEntity
  8
ブラインドリベット150204_
  6
CONTINUOUS
 62
     7
100
AcDbCircle
 10
316.5014306881
 20
234.0833049648
 30
0.0
 40
0.0200000000000096
100
AcDbArc
 50
249.2
 51
302.472732924
  0
ARC
  5
448
330
3D0
100
AcDbEntity
  8
ブラインドリベット150204_
  6
CONTINUOUS
 62
     7
100
AcDbCircle
 10
316.7144948655
 20
234.6442003707
 30
0.0
 40
0.0200000000000006
100
AcDbArc
 50
15.9272670761
 51
69.2
  0
LINE
  5
449
330
3D0
100
AcDbEntity
  8
アジャスター_大昌H150_12
  6
CONTINUOUS
 62
     7
100
AcDbLine
 10
252.0924600666
 20
88.0835850697
 30
0.0
 11
248.2424600666
 21
88.0835850697
 31
0.0
  0
LINE
  5
44A
330
3D0
100
AcDbEntity
  8
アジャスター_大昌H150_12
  6
CONTINUOUS
 62
     7
100
AcDbLine
 10
250.6674600666
 20
90.8835850697
 30
0.0
 11
249.6674600666
 21
90.8835850697
 31
0.0
  0
LINE
  5
44B
330
3D0
100
AcDbEntity
  8
アジャスター_大昌H150_12
  6
CONTINUOUS
 62
     7
100
AcDbLine
 10
252.0924600666
 20
87.1835850697
 30
0.0
 11
252.0866070125
 21
87.1835850697
 31
0.0
  0
LINE
  5
44C
330
3D0
100
AcDbEntity
  8
アジャスター_大昌H150_12
  6
CONTINUOUS
 62
     7
100
AcDbLine
 10
248.3424600666
 20
87.0835850697
 30
0.0
 11
251.9924600666
 21
87.0835850697
 31
0.0
  0
LINE
  5
44D
330
3D0
100
AcDbEntity
  8
アジャスター_大昌H150_12
  6
CONTINUOUS
 62
     7
100
AcDbLine
 10
252.0866070125
 20
87.9835850697
 30
0.0
 11
252.0866070125
 21
87.1835850697
 31
0.0
  0
LINE
  5
44E
330
3D0
100
AcDbEntity
  8
アジャスター_大昌H150_12
  6
CONTINUOUS
 62
     7
100
AcDbLine
 10
252.0924600666
 20
87.9835850697
 30
0.0
 11
252.0866070125
 21
87.9835850697
 31
0.0
  0
LINE
  5
44F
330
3D0
100
AcDbEntity
  8
アジャスター_大昌H150_12
  6
CONTINUOUS
 62
     7
100
AcDbLine
 10
251.9506910347
 20
87.9835850697
 30
0.0
 11
251.9506910347
 21
87.1835850697
 31
0.0
  0
LINE
  5
450
330
3D0
100
AcDbEntity
  8
アジャスター_大昌H150_12
  6
CONTINUOUS
 62
     7
100
AcDbLine
 10
251.9463247261
 20
87.1835850697
 30
0.0
 11
252.0390298244
 21
87.1835850697
 31
0.0
  0
LINE
  5
451
330
3D0
100
AcDbEntity
  8
アジャスター_大昌H150_12
  6
CONTINUOUS
 62
     7
100
AcDbLine
 10
251.9463247261
 20
87.9835850697
 30
0.0
 11
251.9463247261
 21
87.1835850697
 31
0.0
  0
LINE
  5
452
330
3D0
100
AcDbEntity
  8
アジャスター_大昌H150_12
  6
CONTINUOUS
 62
     7
100
AcDbLine
 10
252.0390298244
 20
87.9835850697
 30
0.0
 11
252.0390298244
 21
87.1835850697
 31
0.0
  0
LINE
  5
453
330
3D0
100
AcDbEntity
  8
アジャスター_大昌H150_12
  6
CONTINUOUS
 62
     7
100
AcDbLine
 10
251.9463247261
 20
87.9835850697
 30
0.0
 11
252.0390298244
 21
87.9835850697
 31
0.0
  0
LINE
  5
454
330
3D0
100
AcDbEntity
  8
アジャスター_大昌H150_12
  6
CONTINUOUS
 62
     7
100
AcDbLine
 10
251.6843669311
 20
87.9835850697
 30
0.0
 11
251.6843669311
 21
87.1835850697
 31
0.0
  0
LINE
  5
455
330
3D0
100
AcDbEntity
  8
アジャスター_大昌H150_12
  6
CONTINUOUS
 62
     7
100
AcDbLine
 10
251.6319147727
 20
87.1835850697
 30
0.0
 11
251.8082503484
 21
87.1835850697
 31
0.0
  0
LINE
  5
456
330
3D0
100
AcDbEntity
  8
アジャスター_大昌H150_12
  6
CONTINUOUS
 62
     7
100
AcDbLine
 10
251.6319147727
 20
87.9835850697
 30
0.0
 11
251.6319147727
 21
87.1835850697
 31
0.0
  0
LINE
  5
457
330
3D0
100
AcDbEntity
  8
アジャスター_大昌H150_12
  6
CONTINUOUS
 62
     7
100
AcDbLine
 10
251.8082503484
 20
87.9835850697
 30
0.0
 11
251.8082503484
 21
87.1835850697
 31
0.0
  0
LINE
  5
458
330
3D0
100
AcDbEntity
  8
アジャスター_大昌H150_12
  6
CONTINUOUS
 62
     7
100
AcDbLine
 10
251.6319147727
 20
87.9835850697
 30
0.0
 11
251.8082503484
 21
87.9835850697
 31
0.0
  0
LINE
  5
459
330
3D0
100
AcDbEntity
  8
アジャスター_大昌H150_12
  6
CONTINUOUS
 62
     7
100
AcDbLine
 10
251.2695574147
 20
87.9835850697
 30
0.0
 11
251.2695574147
 21
87.1835850697
 31
0.0
  0
LINE
  5
45A
330
3D0
100
AcDbEntity
  8
アジャスター_大昌H150_12
  6
CONTINUOUS
 62
     7
100
AcDbLine
 10
251.1741537893
 20
87.1835850697
 30
0.0
 11
251.4168588876
 21
87.1835850697
 31
0.0
  0
LINE
  5
45B
330
3D0
100
AcDbEntity
  8
アジャスター_大昌H150_12
  6
CONTINUOUS
 62
     7
100
AcDbLine
 10
251.1741537893
 20
87.9835850697
 30
0.0
 11
251.1741537893
 21
87.1835850697
 31
0.0
  0
LINE
  5
45C
330
3D0
100
AcDbEntity
  8
アジャスター_大昌H150_12
  6
CONTINUOUS
 62
     7
100
AcDbLine
 10
251.4168588876
 20
87.9835850697
 30
0.0
 11
251.4168588876
 21
87.1835850697
 31
0.0
  0
LINE
  5
45D
330
3D0
100
AcDbEntity
  8
アジャスター_大昌H150_12
  6
CONTINUOUS
 62
     7
100
AcDbLine
 10
251.1741537893
 20
87.9835850697
 30
0.0
 11
251.4168588876
 21
87.9835850697
 31
0.0
  0
LINE
  5
45E
330
3D0
100
AcDbEntity
  8
アジャスター_大昌H150_12
  6
CONTINUOUS
 62
     7
100
AcDbLine
 10
250.7468669311
 20
87.9835850697
 30
0.0
 11
250.7468669311
 21
87.1835850697
 31
0.0
  0
LINE
  5
45F
330
3D0
100
AcDbEntity
  8
アジャスター_大昌H150_12
  6
CONTINUOUS
 62
     7
100
AcDbLine
 10
250.6178506102
 20
87.1835850697
 30
0.0
 11
250.9031675651
 21
87.1835850697
 31
0.0
  0
LINE
  5
460
330
3D0
100
AcDbEntity
  8
アジャスター_大昌H150_12
  6
CONTINUOUS
 62
     7
100
AcDbLine
 10
250.6178506102
 20
87.9835850697
 30
0.0
 11
250.6178506102
 21
87.1835850697
 31
0.0
  0
LINE
  5
461
330
3D0
100
AcDbEntity
  8
アジャスター_大昌H150_12
  6
CONTINUOUS
 62
     7
100
AcDbLine
 10
250.9031675651
 20
87.9835850697
 30
0.0
 11
250.9031675651
 21
87.1835850697
 31
0.0
  0
LINE
  5
462
330
3D0
100
AcDbEntity
  8
アジャスター_大昌H150_12
  6
CONTINUOUS
 62
     7
100
AcDbLine
 10
250.6178506102
 20
87.9835850697
 30
0.0
 11
250.9031675651
 21
87.9835850697
 31
0.0
  0
LINE
  5
463
330
3D0
100
AcDbEntity
  8
アジャスター_大昌H150_12
  6
CONTINUOUS
 62
     7
100
AcDbLine
 10
250.1674600666
 20
87.9835850697
 30
0.0
 11
250.1674600666
 21
87.1835850697
 31
0.0
  0
LINE
  5
464
330
3D0
100
AcDbEntity
  8
アジャスター_大昌H150_12
  6
CONTINUOUS
 62
     7
100
AcDbLine
 10
250.0174600666
 20
87.1835850697
 30
0.0
 11
250.3174600666
 21
87.1835850697
 31
0.0
  0
LINE
  5
465
330
3D0
100
AcDbEntity
  8
アジャスター_大昌H150_12
  6
CONTINUOUS
 62
     7
100
AcDbLine
 10
250.0174600666
 20
87.9835850697
 30
0.0
 11
250.0174600666
 21
87.1835850697
 31
0.0
  0
LINE
  5
466
330
3D0
100
AcDbEntity
  8
アジャスター_大昌H150_12
  6
CONTINUOUS
 62
     7
100
AcDbLine
 10
250.3174600666
 20
87.9835850697
 30
0.0
 11
250.3174600666
 21
87.1835850697
 31
0.0
  0
LINE
  5
467
330
3D0
100
AcDbEntity
  8
アジャスター_大昌H150_12
  6
CONTINUOUS
 62
     7
100
AcDbLine
 10
250.0174600666
 20
87.9835850697
 30
0.0
 11
250.3174600666
 21
87.9835850697
 31
0.0
  0
LINE
  5
468
330
3D0
100
AcDbEntity
  8
アジャスター_大昌H150_12
  6
CONTINUOUS
 62
     7
100
AcDbLine
 10
249.5880532022
 20
87.9835850697
 30
0.0
 11
249.5880532022
 21
87.1835850697
 31
0.0
  0
LINE
  5
469
330
3D0
100
AcDbEntity
  8
アジャスター_大昌H150_12
  6
CONTINUOUS
 62
     7
100
AcDbLine
 10
249.4317525682
 20
87.1835850697
 30
0.0
 11
249.7170695231
 21
87.1835850697
 31
0.0
  0
LINE
  5
46A
330
3D0
100
AcDbEntity
  8
アジャスター_大昌H150_12
  6
CONTINUOUS
 62
     7
100
AcDbLine
 10
249.4317525682
 20
87.9835850697
 30
0.0
 11
249.4317525682
 21
87.1835850697
 31
0.0
  0
LINE
  5
46B
330
3D0
100
AcDbEntity
  8
アジャスター_大昌H150_12
  6
CONTINUOUS
 62
     7
100
AcDbLine
 10
249.7170695231
 20
87.9835850697
 30
0.0
 11
249.7170695231
 21
87.1835850697
 31
0.0
  0
LINE
  5
46C
330
3D0
100
AcDbEntity
  8
アジャスター_大昌H150_12
  6
CONTINUOUS
 62
     7
100
AcDbLine
 10
249.4317525682
 20
87.9835850697
 30
0.0
 11
249.7170695231
 21
87.9835850697
 31
0.0
  0
LINE
  5
46D
330
3D0
100
AcDbEntity
  8
アジャスター_大昌H150_12
  6
CONTINUOUS
 62
     7
100
AcDbLine
 10
249.0653627186
 20
87.9835850697
 30
0.0
 11
249.0653627186
 21
87.1835850697
 31
0.0
  0
LINE
  5
46E
330
3D0
100
AcDbEntity
  8
アジャスター_大昌H150_12
  6
CONTINUOUS
 62
     7
100
AcDbLine
 10
248.9180612457
 20
87.1835850697
 30
0.0
 11
249.160766344
 21
87.1835850697
 31
0.0
  0
LINE
  5
46F
330
3D0
100
AcDbEntity
  8
アジャスター_大昌H150_12
  6
CONTINUOUS
 62
     7
100
AcDbLine
 10
248.9180612457
 20
87.9835850697
 30
0.0
 11
248.9180612457
 21
87.1835850697
 31
0.0
  0
LINE
  5
470
330
3D0
100
AcDbEntity
  8
アジャスター_大昌H150_12
  6
CONTINUOUS
 62
     7
100
AcDbLine
 10
249.160766344
 20
87.9835850697
 30
0.0
 11
249.160766344
 21
87.1835850697
 31
0.0
  0
LINE
  5
471
330
3D0
100
AcDbEntity
  8
アジャスター_大昌H150_12
  6
CONTINUOUS
 62
     7
100
AcDbLine
 10
248.9180612457
 20
87.9835850697
 30
0.0
 11
249.160766344
 21
87.9835850697
 31
0.0
  0
LINE
  5
472
330
3D0
100
AcDbEntity
  8
アジャスター_大昌H150_12
  6
CONTINUOUS
 62
     7
100
AcDbLine
 10
248.6505532022
 20
87.9835850697
 30
0.0
 11
248.6505532022
 21
87.1835850697
 31
0.0
  0
LINE
  5
473
330
3D0
100
AcDbEntity
  8
アジャスター_大昌H150_12
  6
CONTINUOUS
 62
     7
100
AcDbLine
 10
248.5266697848
 20
87.1835850697
 30
0.0
 11
248.7030053605
 21
87.1835850697
 31
0.0
  0
LINE
  5
474
330
3D0
100
AcDbEntity
  8
アジャスター_大昌H150_12
  6
CONTINUOUS
 62
     7
100
AcDbLine
 10
248.5266697848
 20
87.9835850697
 30
0.0
 11
248.5266697848
 21
87.1835850697
 31
0.0
  0
LINE
  5
475
330
3D0
100
AcDbEntity
  8
アジャスター_大昌H150_12
  6
CONTINUOUS
 62
     7
100
AcDbLine
 10
248.7030053605
 20
87.9835850697
 30
0.0
 11
248.7030053605
 21
87.1835850697
 31
0.0
  0
LINE
  5
476
330
3D0
100
AcDbEntity
  8
アジャスター_大昌H150_12
  6
CONTINUOUS
 62
     7
100
AcDbLine
 10
248.5266697848
 20
87.9835850697
 30
0.0
 11
248.7030053605
 21
87.9835850697
 31
0.0
  0
LINE
  5
477
330
3D0
100
AcDbEntity
  8
アジャスター_大昌H150_12
  6
CONTINUOUS
 62
     7
100
AcDbLine
 10
248.3842290986
 20
87.9835850697
 30
0.0
 11
248.3842290986
 21
87.1835850697
 31
0.0
  0
LINE
  5
478
330
3D0
100
AcDbEntity
  8
アジャスター_大昌H150_12
  6
CONTINUOUS
 62
     7
100
AcDbLine
 10
248.2958903088
 20
87.1835850697
 30
0.0
 11
248.3885954071
 21
87.1835850697
 31
0.0
  0
LINE
  5
479
330
3D0
100
AcDbEntity
  8
アジャスター_大昌H150_12
  6
CONTINUOUS
 62
     7
100
AcDbLine
 10
248.2958903088
 20
87.9835850697
 30
0.0
 11
248.2958903088
 21
87.1835850697
 31
0.0
  0
LINE
  5
47A
330
3D0
100
AcDbEntity
  8
アジャスター_大昌H150_12
  6
CONTINUOUS
 62
     7
100
AcDbLine
 10
248.3885954071
 20
87.9835850697
 30
0.0
 11
248.3885954071
 21
87.1835850697
 31
0.0
  0
LINE
  5
47B
330
3D0
100
AcDbEntity
  8
アジャスター_大昌H150_12
  6
CONTINUOUS
 62
     7
100
AcDbLine
 10
248.2958903088
 20
87.9835850697
 30
0.0
 11
248.3885954071
 21
87.9835850697
 31
0.0
  0
LINE
  5
47C
330
3D0
100
AcDbEntity
  8
アジャスター_大昌H150_12
  6
CONTINUOUS
 62
     7
100
AcDbLine
 10
248.2483131207
 20
87.1835850697
 30
0.0
 11
248.2424600666
 21
87.1835850697
 31
0.0
  0
LINE
  5
47D
330
3D0
100
AcDbEntity
  8
アジャスター_大昌H150_12
  6
CONTINUOUS
 62
     7
100
AcDbLine
 10
248.2483131207
 20
87.9835850697
 30
0.0
 11
248.2483131207
 21
87.1835850697
 31
0.0
  0
LINE
  5
47E
330
3D0
100
AcDbEntity
  8
アジャスター_大昌H150_12
  6
CONTINUOUS
 62
     7
100
AcDbLine
 10
248.2483131207
 20
87.9835850697
 30
0.0
 11
248.2424600666
 21
87.9835850697
 31
0.0
  0
LINE
  5
47F
330
3D0
100
AcDbEntity
  8
アジャスター_大昌H150_12
  6
CONTINUOUS
 62
     7
100
AcDbLine
 10
250.6674600666
 20
88.0835850697
 30
0.0
 11
250.6674600666
 21
89.1335850697
 31
0.0
  0
LINE
  5
480
330
3D0
100
AcDbEntity
  8
アジャスター_大昌H150_12
  6
CONTINUOUS
 62
     7
100
AcDbLine
 10
250.6674600666
 20
89.7335850697
 30
0.0
 11
250.6674600666
 21
90.8835850697
 31
0.0
  0
LINE
  5
481
330
3D0
100
AcDbEntity
  8
アジャスター_大昌H150_12
  6
CONTINUOUS
 62
     7
100
AcDbLine
 10
249.6674600666
 20
90.8835850697
 30
0.0
 11
249.6674600666
 21
89.7335850697
 31
0.0
  0
LINE
  5
482
330
3D0
100
AcDbEntity
  8
アジャスター_大昌H150_12
  6
CONTINUOUS
 62
     7
100
AcDbLine
 10
249.6674600666
 20
89.1335850697
 30
0.0
 11
249.6674600666
 21
88.0835850697
 31
0.0
  0
ARC
  5
483
330
3D0
100
AcDbEntity
  8
アジャスター_大昌H150_12
  6
CONTINUOUS
 62
     7
100
AcDbCircle
 10
248.3424600666
 20
87.1835850697
 30
0.0
 40
0.1000000000000001
100
AcDbArc
 50
180.0
 51
270.0
  0
ARC
  5
484
330
3D0
100
AcDbEntity
  8
アジャスター_大昌H150_12
  6
CONTINUOUS
 62
     7
100
AcDbCircle
 10
251.9924600666
 20
87.1835850697
 30
0.0
 40
0.1
100
AcDbArc
 50
270.0
 51
0.0
  0
LINE
  5
485
330
3D0
100
AcDbEntity
  8
アジャスター_大昌H150_12
  6
CONTINUOUS
 62
     7
100
AcDbLine
 10
252.0924600666
 20
87.9835850697
 30
0.0
 11
252.0924600666
 21
88.0835850697
 31
0.0
  0
LINE
  5
486
330
3D0
100
AcDbEntity
  8
アジャスター_大昌H150_12
  6
CONTINUOUS
 62
     7
100
AcDbLine
 10
248.2424600666
 20
88.0835850697
 30
0.0
 11
248.2424600666
 21
87.9835850697
 31
0.0
  0
LINE
  5
487
330
3D0
100
AcDbEntity
  8
ﾐﾗｰ支柱カバー160803_ﾃ_
  6
CONTINUOUS
 62
     7
100
AcDbLine
 10
309.6301173271
 20
237.5847882458
 30
0.0
 11
251.7895900839
 21
97.9454029204
 31
0.0
  0
LINE
  5
488
330
3D0
100
AcDbEntity
  8
ﾐﾗｰ支柱カバー160803_ﾃ_
  6
CONTINUOUS
 62
     7
100
AcDbLine
 10
314.0626027545
 20
237.5847882458
 30
0.0
 11
310.4323658117
 21
237.5847882458
 31
0.0
  0
ELLIPSE
  5
489
330
3D0
100
AcDbEntity
  8
ﾐﾗｰ支柱カバー160803_ﾃ_
  6
CONTINUOUS
 62
     7
100
AcDbEllipse
 10
256.2318059951
 20
97.9147882458
 30
0.0
 11
0.02157344651713897
 21
-0.0004478163481203001
 31
0.0
210
0.0
220
0.0
230
1.0
 40
0.089986861
 41
3.10650303881599
 42
3.36830242675924
  0
LINE
  5
48A
330
3D0
100
AcDbEntity
  8
ﾐﾗｰ支柱カバー160803_ﾃ_
  6
CONTINUOUS
 62
     7
100
AcDbLine
 10
252.6015690523
 20
97.9147882458
 30
0.0
 11
252.5824396428
 21
97.9227119066
 31
0.0
  0
LINE
  5
48B
330
3D0
100
AcDbEntity
  8
ﾐﾗｰ支柱カバー160803_ﾃ_
  6
CONTINUOUS
 62
     7
100
AcDbLine
 10
252.5824396428
 20
97.9227119066
 30
0.0
 11
256.2126765856
 21
97.9227119066
 31
0.0
  0
LINE
  5
48C
330
3D0
100
AcDbEntity
  8
ﾐﾗｰ支柱カバー160803_ﾃ_
  6
CONTINUOUS
 62
     7
100
AcDbLine
 10
252.6015690523
 20
97.9147882458
 30
0.0
 11
256.2107755289
 21
97.9147882458
 31
0.0
  0
LINE
  5
48D
330
3D0
100
AcDbEntity
  8
ﾐﾗｰ支柱カバー160803_ﾃ_
  6
CONTINUOUS
 62
     7
100
AcDbLine
 10
256.2111881493
 20
97.9157843995
 30
0.0
 11
256.2107755289
 21
97.9147882458
 31
0.0
  0
LINE
  5
48E
330
3D0
100
AcDbEntity
  8
ﾐﾗｰ支柱カバー160803_ﾃ_
  6
CONTINUOUS
 62
     7
100
AcDbLine
 10
256.2318059951
 20
97.9147882458
 30
0.0
 11
264.6686698504
 21
97.9147882458
 31
0.0
  0
LINE
  5
48F
330
3D0
100
AcDbEntity
  8
ﾐﾗｰ支柱カバー160803_ﾃ_
  6
CONTINUOUS
 62
     7
100
AcDbLine
 10
256.2318059951
 20
97.9147882458
 30
0.0
 11
256.2126765856
 21
97.9227119066
 31
0.0
  0
LINE
  5
490
330
3D0
100
AcDbEntity
  8
ﾐﾗｰ支柱カバー160803_ﾃ_
  6
CONTINUOUS
 62
     7
100
AcDbLine
 10
314.0626027545
 20
237.5847882458
 30
0.0
 11
314.0736975265
 21
237.5847537643
 31
0.0
  0
LINE
  5
491
330
3D0
100
AcDbEntity
  8
ﾐﾗｰ支柱カバー160803_ﾃ_
  6
CONTINUOUS
 62
     7
100
AcDbLine
 10
314.0736975265
 20
237.5847537643
 30
0.0
 11
314.0850142518
 21
237.5847882458
 31
0.0
  0
SPLINE
  5
492
330
3D0
100
AcDbEntity
  8
ﾐﾗｰ支柱カバー160803_ﾃ_
  6
CONTINUOUS
 62
     7
100
AcDbSpline
210
0.0
220
0.0
230
1.0
 70
     8
 71
     3
 72
    14
 73
    10
 74
     0
 42
0.0000001134232523
 43
0.0000000001
 40
0.0
 40
0.0
 40
0.0
 40
0.0
 40
0.25
 40
0.25
 40
0.5
 40
0.5
 40
0.75
 40
0.75
 40
1.0
 40
1.0
 40
1.0
 40
1.0
 10
264.7542473030097
 20
97.91478824579121
 30
0.0
 10
264.7533478666231
 20
97.91242046279228
 30
0.0
 10
264.7505022557858
 20
97.91079288499063
 30
0.0
 10
264.741211152194
 20
97.90890427337331
 30
0.0
 10
264.734768760613
 20
97.9086425229695
 30
0.0
 10
264.7191257907075
 20
97.90916675901907
 30
0.0
 10
264.7099306595646
 20
97.90995067628229
 30
0.0
 10
264.6900435082775
 20
97.91208712559944
 30
0.0
 10
264.6793604258967
 20
97.91343672395278
 30
0.0
 10
264.6686698504215
 20
97.91478824579121
 30
0.0
  0
ARC
  5
493
330
3D0
100
AcDbEntity
  8
ﾐﾗｰ支柱カバー160803_ﾃ_
  6
CONTINUOUS
 62
     7
100
AcDbCircle
 10
252.4869120112
 20
108.4477424176
 30
0.0
 40
10.52546401756741
100
AcDbArc
 50
266.2013182014
 51
270.5200155788
  0
ARC
  5
494
330
3D0
100
AcDbEntity
  8
ﾐﾗｰ支柱カバー160803_ﾃ_
  6
CONTINUOUS
 62
     7
100
AcDbCircle
 10
310.0312415694
 20
394.5013065052
 30
0.0
 40
156.91703095367
100
AcDbArc
 50
269.8535356485
 51
270.1464643515
  0
ARC
  5
495
330
3D0
100
AcDbEntity
  8
ﾐﾗｰ支柱カバー160803_ﾃ_
  6
CONTINUOUS
 62
     7
100
AcDbCircle
 10
252.2325347494
 20
107.2923204288
 30
0.0
 40
9.384790682795654
100
AcDbArc
 50
267.7503303187
 51
272.2535996414
  0
LINE
  5
496
330
3D0
100
AcDbEntity
  8
ﾐﾗｰ支柱カバー160803_ﾃ_
  6
CONTINUOUS
 62
     7
100
AcDbLine
 10
317.3812610305
 20
236.4563796888
 30
0.0
 11
264.754247303
 21
97.9147882458
 31
0.0
  0
LINE
  5
497
330
3D0
100
AcDbEntity
  8
ﾐﾗｰ支柱カバー160803_ﾃ_
  6
CONTINUOUS
 62
     7
100
AcDbLine
 10
317.3812610305
 20
236.4563796888
 30
0.0
 11
317.3064749764
 21
236.4847882458
 31
0.0
  0
CIRCLE
  5
498
330
3D0
100
AcDbEntity
  8
ﾐﾗｰ支柱カバー160803_ﾃ_
  6
CONTINUOUS
 62
     7
100
AcDbCircle
 10
304.47250067
 20
209.5139605074
 30
0.0
 40
0.2499999999999785
  0
LINE
  5
499
330
3D0
100
AcDbEntity
  8
ﾐﾗｰ支柱カバー160803_ﾃ_
  6
CONTINUOUS
 62
     7
100
AcDbLine
 10
317.3064749764
 20
237.0847882458
 30
0.0
 11
317.3064749764
 21
236.4847882458
 31
0.0
  0
LINE
  5
49A
330
3D0
100
AcDbEntity
  8
ﾐﾗｰ支柱カバー160803_ﾃ_
  6
CONTINUOUS
 62
     7
100
AcDbLine
 10
316.8064749764
 20
237.5847882458
 30
0.0
 11
314.0850142518
 21
237.5847882458
 31
0.0
  0
ARC
  5
49B
330
3D0
100
AcDbEntity
  8
ﾐﾗｰ支柱カバー160803_ﾃ_
  6
CONTINUOUS
 62
     7
100
AcDbCircle
 10
316.8064749764
 20
237.0847882458
 30
0.0
 40
0.5000000000000117
100
AcDbArc
 50
0.0
 51
90.0
  0
LINE
  5
49C
330
3D0
100
AcDbEntity
  8
ﾐﾗｰ支柱カバー160803_ﾃ_
  6
CONTINUOUS
 62
     7
100
AcDbLine
 10
251.7903769599
 20
97.945024097
 30
0.0
 11
251.8642240725
 21
97.9144355532
 31
0.0
  0
ARC
  5
49D
330
3D0
100
AcDbEntity
  8
ﾐﾗｰ支柱上蓋150407_ﾃﾞ
  6
CONTINUOUS
 62
     7
100
AcDbCircle
 10
316.8443257784
 20
237.1247882458
 30
0.0
 40
0.4600000000000049
100
AcDbArc
 50
0.0
 51
90.0
  0
LINE
  5
49E
330
3D0
100
AcDbEntity
  8
ﾐﾗｰ転点防止金具_前_1608
  6
CONTINUOUS
 62
     7
100
AcDbLine
 10
253.589172067
 20
96.8295205265
 30
0.0
 11
248.7674600666
 21
94.3194961319
 31
0.0
  0
LINE
  5
49F
330
3D0
100
AcDbEntity
  8
ﾐﾗｰ転点防止金具_前_1608
  6
CONTINUOUS
 62
     7
100
AcDbLine
 10
253.3121228991
 20
97.3617270264
 30
0.0
 11
248.4904108987
 21
94.8517026318
 31
0.0
  0
LINE
  5
4A0
330
3D0
100
AcDbEntity
  8
ﾐﾗｰ転点防止金具_前_1608
  6
CONTINUOUS
 62
     7
100
AcDbLine
 10
248.7674600666
 20
94.3194961319
 30
0.0
 11
248.7674600666
 21
89.7335850697
 31
0.0
  0
LINE
  5
4A1
330
3D0
100
AcDbEntity
  8
ﾐﾗｰ転点防止金具_前_1608
  6
CONTINUOUS
 62
     7
100
AcDbLine
 10
248.1674600666
 20
94.3194961319
 30
0.0
 11
248.1674600666
 21
89.7335850697
 31
0.0
  0
ARC
  5
4A2
330
3D0
100
AcDbEntity
  8
ﾐﾗｰ転点防止金具_前_1608
  6
CONTINUOUS
 62
     7
100
AcDbCircle
 10
248.7674600666
 20
94.3194961319
 30
0.0
 40
0.6000000000000044
100
AcDbArc
 50
117.5
 51
180.0
  0
ARC
  5
4A3
330
3D0
100
AcDbEntity
  8
ﾐﾗｰ転点防止金具_前_1608
  6
CONTINUOUS
 62
     7
100
AcDbCircle
 10
253.3121228991
 20
97.3617270264
 30
0.0
 40
0.6000000000000002
100
AcDbArc
 50
297.5
 51
337.5
  0
ARC
  5
4A4
330
3D0
100
AcDbEntity
  8
ﾐﾗｰ転点防止金具_前_1608
  6
CONTINUOUS
 62
     7
100
AcDbCircle
 10
248.7674600666
 20
89.7335850697
 30
0.0
 40
0.5999999999999999
100
AcDbArc
 50
180.0
 51
270.0
  0
LINE
  5
4A5
330
3D0
100
AcDbEntity
  8
ﾐﾗｰ転点防止金具_前_1608
  6
CONTINUOUS
 62
     7
100
AcDbLine
 10
253.5034646152
 20
97.8236667927
 30
0.0
 11
253.3121228991
 21
97.3617270264
 31
0.0
  0
LINE
  5
4A6
330
3D0
100
AcDbEntity
  8
ﾐﾗｰ転点防止金具_前_1608
  6
CONTINUOUS
 62
     7
100
AcDbLine
 10
254.0577923347
 20
97.5940567333
 30
0.0
 11
253.8664506186
 21
97.132116967
 31
0.0
  0
LINE
  5
4A7
330
3D0
100
AcDbEntity
  8
ﾐﾗｰ転点防止金具_前_1608
  6
CONTINUOUS
 62
     7
100
AcDbLine
 10
253.5034646152
 20
97.8236667927
 30
0.0
 11
253.5412083569
 21
97.9147882458
 31
0.0
  0
LINE
  5
4A8
330
3D0
100
AcDbEntity
  8
ﾐﾗｰ転点防止金具_前_1608
  6
CONTINUOUS
 62
     7
100
AcDbLine
 10
253.5034646152
 20
97.8236667927
 30
0.0
 11
254.0577923347
 21
97.5940567333
 31
0.0
  0
LINE
  5
4A9
330
3D0
100
AcDbEntity
  8
ﾐﾗｰ転点防止金具_前_1608
  6
CONTINUOUS
 62
     7
100
AcDbLine
 10
251.6674600666
 20
89.1335850697
 30
0.0
 11
251.6674600666
 21
89.7335850697
 31
0.0
  0
LINE
  5
4AA
330
3D0
100
AcDbEntity
  8
ﾐﾗｰ転点防止金具_前_1608
  6
CONTINUOUS
 62
     7
100
AcDbLine
 10
251.1674600666
 20
89.7335850697
 30
0.0
 11
248.7674600666
 21
89.7335850697
 31
0.0
  0
LINE
  5
4AB
330
3D0
100
AcDbEntity
  8
ﾐﾗｰ転点防止金具_前_1608
  6
CONTINUOUS
 62
     7
100
AcDbLine
 10
251.6674600666
 20
89.7335850697
 30
0.0
 11
251.1674600666
 21
89.7335850697
 31
0.0
  0
LINE
  5
4AC
330
3D0
100
AcDbEntity
  8
ﾐﾗｰ転点防止金具_前_1608
  6
CONTINUOUS
 62
     7
100
AcDbLine
 10
251.1674600666
 20
89.1335850697
 30
0.0
 11
248.7674600666
 21
89.1335850697
 31
0.0
  0
LINE
  5
4AD
330
3D0
100
AcDbEntity
  8
ﾐﾗｰ転点防止金具_前_1608
  6
CONTINUOUS
 62
     7
100
AcDbLine
 10
251.1674600666
 20
89.1335850697
 30
0.0
 11
251.6674600666
 21
89.1335850697
 31
0.0
  0
LINE
  5
4AE
330
3D0
100
AcDbEntity
  8
ﾐﾗｰ転点防止金具_前_1608
  6
CONTINUOUS
 62
     7
100
AcDbLine
 10
255.5359995868
 20
96.9817632415
 30
0.0
 11
254.0577923347
 21
97.5940567333
 31
0.0
  0
LINE
  5
4AF
330
3D0
100
AcDbEntity
  8
ﾐﾗｰ転点防止金具_前_1608
  6
CONTINUOUS
 62
     7
100
AcDbLine
 10
256.1389496376
 20
97.9147882458
 30
0.0
 11
255.7973121797
 21
97.0900024615
 31
0.0
  0
ARC
  5
4B0
330
3D0
100
AcDbEntity
  8
ﾐﾗｰ転点防止金具_前_1608
  6
CONTINUOUS
 62
     7
100
AcDbCircle
 10
255.6125362732
 20
97.166539148
 30
0.0
 40
0.1999999999999942
100
AcDbArc
 50
247.5
 51
337.5
  0
LINE
  5
4B1
330
3D0
100
AcDbEntity
  8
平座金_並形__6_13_1_0
  6
CONTINUOUS
 62
     7
100
AcDbLine
 10
302.7186698504
 20
97.8647882458
 30
0.0
 11
301.4186698504
 21
97.8647882458
 31
0.0
  0
LINE
  5
4B2
330
3D0
100
AcDbEntity
  8
平座金_並形__6_13_1_0
  6
CONTINUOUS
 62
     7
100
AcDbLine
 10
302.7186698504
 20
97.8647882458
 30
0.0
 11
302.7186698504
 21
97.9147882458
 31
0.0
  0
LINE
  5
4B3
330
3D0
100
AcDbEntity
  8
平座金_並形__6_13_1_0
  6
CONTINUOUS
 62
     7
100
AcDbLine
 10
301.4186698504
 20
97.9147882458
 30
0.0
 11
301.4186698504
 21
97.8647882458
 31
0.0
  0
LINE
  5
4B4
330
3D0
100
AcDbEntity
  8
バネ座金_2号__呼び_6_6_
  6
CONTINUOUS
 62
     7
100
AcDbLine
 10
302.6786698504
 20
97.7147882458
 30
0.0
 11
301.4586698504
 21
97.7147882458
 31
0.0
  0
LINE
  5
4B5
330
3D0
100
AcDbEntity
  8
バネ座金_2号__呼び_6_6_
  6
CONTINUOUS
 62
     7
100
AcDbLine
 10
301.4586698504
 20
97.8647882458
 30
0.0
 11
301.4586698504
 21
97.7147882458
 31
0.0
  0
LINE
  5
4B6
330
3D0
100
AcDbEntity
  8
バネ座金_2号__呼び_6_6_
  6
CONTINUOUS
 62
     7
100
AcDbLine
 10
302.6786698504
 20
97.7147882458
 30
0.0
 11
302.6786698504
 21
97.8647882458
 31
0.0
  0
LINE
  5
4B7
330
3D0
100
AcDbEntity
  8
六角穴付キャップボルト_M6_1
  6
CONTINUOUS
 62
     7
100
AcDbLine
 10
302.4936698504
 20
97.1147882458
 30
0.0
 11
301.6436698504
 21
97.1147882458
 31
0.0
  0
LINE
  5
4B8
330
3D0
100
AcDbEntity
  8
六角穴付キャップボルト_M6_1
  6
CONTINUOUS
 62
     7
100
AcDbLine
 10
302.5686698504
 20
97.158089516
 30
0.0
 11
301.5686698504
 21
97.158089516
 31
0.0
  0
LINE
  5
4B9
330
3D0
100
AcDbEntity
  8
六角穴付キャップボルト_M6_1
  6
CONTINUOUS
 62
     7
100
AcDbLine
 10
301.5686698504
 20
97.7147882458
 30
0.0
 11
301.5686698504
 21
97.158089516
 31
0.0
  0
LINE
  5
4BA
330
3D0
100
AcDbEntity
  8
六角穴付キャップボルト_M6_1
  6
CONTINUOUS
 62
     7
100
AcDbLine
 10
302.5686698504
 20
97.158089516
 30
0.0
 11
302.5686698504
 21
97.7147882458
 31
0.0
  0
LINE
  5
4BB
330
3D0
100
AcDbEntity
  8
六角穴付キャップボルト_M6_1
  6
CONTINUOUS
 62
     7
100
AcDbLine
 10
301.5686698504
 20
97.158089516
 30
0.0
 11
301.6436698504
 21
97.1147882458
 31
0.0
  0
LINE
  5
4BC
330
3D0
100
AcDbEntity
  8
六角穴付キャップボルト_M6_1
  6
CONTINUOUS
 62
     7
100
AcDbLine
 10
302.4936698504
 20
97.1147882458
 30
0.0
 11
302.5686698504
 21
97.158089516
 31
0.0
  0
LINE
  5
4BD
330
3D0
100
AcDbEntity
  8
平座金_並形__6_13_1_0
  6
CONTINUOUS
 62
     7
100
AcDbLine
 10
321.3186698504
 20
97.8647882458
 30
0.0
 11
320.0186698504
 21
97.8647882458
 31
0.0
  0
LINE
  5
4BE
330
3D0
100
AcDbEntity
  8
平座金_並形__6_13_1_0
  6
CONTINUOUS
 62
     7
100
AcDbLine
 10
321.3186698504
 20
97.8647882458
 30
0.0
 11
321.3186698504
 21
97.9147882458
 31
0.0
  0
LINE
  5
4BF
330
3D0
100
AcDbEntity
  8
平座金_並形__6_13_1_0
  6
CONTINUOUS
 62
     7
100
AcDbLine
 10
320.0186698504
 20
97.9147882458
 30
0.0
 11
320.0186698504
 21
97.8647882458
 31
0.0
  0
LINE
  5
4C0
330
3D0
100
AcDbEntity
  8
バネ座金_2号__呼び_6_6_
  6
CONTINUOUS
 62
     7
100
AcDbLine
 10
321.2786698504
 20
97.7147882458
 30
0.0
 11
320.0586698504
 21
97.7147882458
 31
0.0
  0
LINE
  5
4C1
330
3D0
100
AcDbEntity
  8
バネ座金_2号__呼び_6_6_
  6
CONTINUOUS
 62
     7
100
AcDbLine
 10
320.0586698504
 20
97.8647882458
 30
0.0
 11
320.0586698504
 21
97.7147882458
 31
0.0
  0
LINE
  5
4C2
330
3D0
100
AcDbEntity
  8
バネ座金_2号__呼び_6_6_
  6
CONTINUOUS
 62
     7
100
AcDbLine
 10
321.2786698504
 20
97.7147882458
 30
0.0
 11
321.2786698504
 21
97.8647882458
 31
0.0
  0
LINE
  5
4C3
330
3D0
100
AcDbEntity
  8
六角穴付キャップボルト_M6_1
  6
CONTINUOUS
 62
     7
100
AcDbLine
 10
321.0936698504
 20
97.1147882458
 30
0.0
 11
320.2436698504
 21
97.1147882458
 31
0.0
  0
LINE
  5
4C4
330
3D0
100
AcDbEntity
  8
六角穴付キャップボルト_M6_1
  6
CONTINUOUS
 62
     7
100
AcDbLine
 10
321.1686698504
 20
97.158089516
 30
0.0
 11
320.1686698504
 21
97.158089516
 31
0.0
  0
LINE
  5
4C5
330
3D0
100
AcDbEntity
  8
六角穴付キャップボルト_M6_1
  6
CONTINUOUS
 62
     7
100
AcDbLine
 10
320.1686698504
 20
97.7147882458
 30
0.0
 11
320.1686698504
 21
97.158089516
 31
0.0
  0
LINE
  5
4C6
330
3D0
100
AcDbEntity
  8
六角穴付キャップボルト_M6_1
  6
CONTINUOUS
 62
     7
100
AcDbLine
 10
321.1686698504
 20
97.158089516
 30
0.0
 11
321.1686698504
 21
97.7147882458
 31
0.0
  0
LINE
  5
4C7
330
3D0
100
AcDbEntity
  8
六角穴付キャップボルト_M6_1
  6
CONTINUOUS
 62
     7
100
AcDbLine
 10
320.1686698504
 20
97.158089516
 30
0.0
 11
320.2436698504
 21
97.1147882458
 31
0.0
  0
LINE
  5
4C8
330
3D0
100
AcDbEntity
  8
六角穴付キャップボルト_M6_1
  6
CONTINUOUS
 62
     7
100
AcDbLine
 10
321.0936698504
 20
97.1147882458
 30
0.0
 11
321.1686698504
 21
97.158089516
 31
0.0
  0
LINE
  5
4C9
330
3D0
100
AcDbEntity
  8
ベースパネル160803_ﾃﾞﾌ_
  6
CONTINUOUS
 62
     7
100
AcDbLine
 10
329.2486698504
 20
102.5647882458
 30
0.0
 11
329.0086698504
 21
102.5647882458
 31
0.0
  0
ARC
  5
4CA
330
3D0
100
AcDbEntity
  8
ベースパネル160803_ﾃﾞﾌ_
  6
CONTINUOUS
 62
     7
100
AcDbCircle
 10
329.2486698504
 20
102.4447882458
 30
0.0
 40
0.1199999999999979
100
AcDbArc
 50
59.581761724
 51
90.0
  0
LINE
  5
4CB
330
3D0
100
AcDbEntity
  8
アジャスター_大昌H150_12
  6
CONTINUOUS
 62
     7
100
AcDbLine
 10
329.4936698504
 20
88.0847882458
 30
0.0
 11
325.6436698504
 21
88.0847882458
 31
0.0
  0
LINE
  5
4CC
330
3D0
100
AcDbEntity
  8
アジャスター_大昌H150_12
  6
CONTINUOUS
 62
     7
100
AcDbLine
 10
328.0686698504
 20
90.8847882458
 30
0.0
 11
327.0686698504
 21
90.8847882458
 31
0.0
  0
LINE
  5
4CD
330
3D0
100
AcDbEntity
  8
アジャスター_大昌H150_12
  6
CONTINUOUS
 62
     7
100
AcDbLine
 10
329.4878167963
 20
87.1847882458
 30
0.0
 11
329.4936698504
 21
87.1847882458
 31
0.0
  0
LINE
  5
4CE
330
3D0
100
AcDbEntity
  8
アジャスター_大昌H150_12
  6
CONTINUOUS
 62
     7
100
AcDbLine
 10
325.7436698504
 20
87.0847882458
 30
0.0
 11
329.3936698504
 21
87.0847882458
 31
0.0
  0
LINE
  5
4CF
330
3D0
100
AcDbEntity
  8
アジャスター_大昌H150_12
  6
CONTINUOUS
 62
     7
100
AcDbLine
 10
329.4878167963
 20
87.9847882458
 30
0.0
 11
329.4878167963
 21
87.1847882458
 31
0.0
  0
LINE
  5
4D0
330
3D0
100
AcDbEntity
  8
アジャスター_大昌H150_12
  6
CONTINUOUS
 62
     7
100
AcDbLine
 10
329.4878167963
 20
87.9847882458
 30
0.0
 11
329.4936698504
 21
87.9847882458
 31
0.0
  0
LINE
  5
4D1
330
3D0
100
AcDbEntity
  8
アジャスター_大昌H150_12
  6
CONTINUOUS
 62
     7
100
AcDbLine
 10
329.3519008185
 20
87.9847882458
 30
0.0
 11
329.3519008185
 21
87.1847882458
 31
0.0
  0
LINE
  5
4D2
330
3D0
100
AcDbEntity
  8
アジャスター_大昌H150_12
  6
CONTINUOUS
 62
     7
100
AcDbLine
 10
329.3475345099
 20
87.1847882458
 30
0.0
 11
329.4402396082
 21
87.1847882458
 31
0.0
  0
LINE
  5
4D3
330
3D0
100
AcDbEntity
  8
アジャスター_大昌H150_12
  6
CONTINUOUS
 62
     7
100
AcDbLine
 10
329.3475345099
 20
87.9847882458
 30
0.0
 11
329.3475345099
 21
87.1847882458
 31
0.0
  0
LINE
  5
4D4
330
3D0
100
AcDbEntity
  8
アジャスター_大昌H150_12
  6
CONTINUOUS
 62
     7
100
AcDbLine
 10
329.4402396082
 20
87.9847882458
 30
0.0
 11
329.4402396082
 21
87.1847882458
 31
0.0
  0
LINE
  5
4D5
330
3D0
100
AcDbEntity
  8
アジャスター_大昌H150_12
  6
CONTINUOUS
 62
     7
100
AcDbLine
 10
329.3475345099
 20
87.9847882458
 30
0.0
 11
329.4402396082
 21
87.9847882458
 31
0.0
  0
LINE
  5
4D6
330
3D0
100
AcDbEntity
  8
アジャスター_大昌H150_12
  6
CONTINUOUS
 62
     7
100
AcDbLine
 10
329.0855767149
 20
87.9847882458
 30
0.0
 11
329.0855767149
 21
87.1847882458
 31
0.0
  0
LINE
  5
4D7
330
3D0
100
AcDbEntity
  8
アジャスター_大昌H150_12
  6
CONTINUOUS
 62
     7
100
AcDbLine
 10
329.0331245565
 20
87.1847882458
 30
0.0
 11
329.2094601322
 21
87.1847882458
 31
0.0
  0
LINE
  5
4D8
330
3D0
100
AcDbEntity
  8
アジャスター_大昌H150_12
  6
CONTINUOUS
 62
     7
100
AcDbLine
 10
329.0331245565
 20
87.9847882458
 30
0.0
 11
329.0331245565
 21
87.1847882458
 31
0.0
  0
LINE
  5
4D9
330
3D0
100
AcDbEntity
  8
アジャスター_大昌H150_12
  6
CONTINUOUS
 62
     7
100
AcDbLine
 10
329.2094601322
 20
87.9847882458
 30
0.0
 11
329.2094601322
 21
87.1847882458
 31
0.0
  0
LINE
  5
4DA
330
3D0
100
AcDbEntity
  8
アジャスター_大昌H150_12
  6
CONTINUOUS
 62
     7
100
AcDbLine
 10
329.0331245565
 20
87.9847882458
 30
0.0
 11
329.2094601322
 21
87.9847882458
 31
0.0
  0
LINE
  5
4DB
330
3D0
100
AcDbEntity
  8
アジャスター_大昌H150_12
  6
CONTINUOUS
 62
     7
100
AcDbLine
 10
328.6707671985
 20
87.9847882458
 30
0.0
 11
328.6707671985
 21
87.1847882458
 31
0.0
  0
LINE
  5
4DC
330
3D0
100
AcDbEntity
  8
アジャスター_大昌H150_12
  6
CONTINUOUS
 62
     7
100
AcDbLine
 10
328.5753635731
 20
87.1847882458
 30
0.0
 11
328.8180686714
 21
87.1847882458
 31
0.0
  0
LINE
  5
4DD
330
3D0
100
AcDbEntity
  8
アジャスター_大昌H150_12
  6
CONTINUOUS
 62
     7
100
AcDbLine
 10
328.5753635731
 20
87.9847882458
 30
0.0
 11
328.5753635731
 21
87.1847882458
 31
0.0
  0
LINE
  5
4DE
330
3D0
100
AcDbEntity
  8
アジャスター_大昌H150_12
  6
CONTINUOUS
 62
     7
100
AcDbLine
 10
328.8180686714
 20
87.9847882458
 30
0.0
 11
328.8180686714
 21
87.1847882458
 31
0.0
  0
LINE
  5
4DF
330
3D0
100
AcDbEntity
  8
アジャスター_大昌H150_12
  6
CONTINUOUS
 62
     7
100
AcDbLine
 10
328.5753635731
 20
87.9847882458
 30
0.0
 11
328.8180686714
 21
87.9847882458
 31
0.0
  0
LINE
  5
4E0
330
3D0
100
AcDbEntity
  8
アジャスター_大昌H150_12
  6
CONTINUOUS
 62
     7
100
AcDbLine
 10
328.1480767149
 20
87.9847882458
 30
0.0
 11
328.1480767149
 21
87.1847882458
 31
0.0
  0
LINE
  5
4E1
330
3D0
100
AcDbEntity
  8
アジャスター_大昌H150_12
  6
CONTINUOUS
 62
     7
100
AcDbLine
 10
328.019060394
 20
87.1847882458
 30
0.0
 11
328.3043773489
 21
87.1847882458
 31
0.0
  0
LINE
  5
4E2
330
3D0
100
AcDbEntity
  8
アジャスター_大昌H150_12
  6
CONTINUOUS
 62
     7
100
AcDbLine
 10
328.019060394
 20
87.9847882458
 30
0.0
 11
328.019060394
 21
87.1847882458
 31
0.0
  0
LINE
  5
4E3
330
3D0
100
AcDbEntity
  8
アジャスター_大昌H150_12
  6
CONTINUOUS
 62
     7
100
AcDbLine
 10
328.3043773489
 20
87.9847882458
 30
0.0
 11
328.3043773489
 21
87.1847882458
 31
0.0
  0
LINE
  5
4E4
330
3D0
100
AcDbEntity
  8
アジャスター_大昌H150_12
  6
CONTINUOUS
 62
     7
100
AcDbLine
 10
328.019060394
 20
87.9847882458
 30
0.0
 11
328.3043773489
 21
87.9847882458
 31
0.0
  0
LINE
  5
4E5
330
3D0
100
AcDbEntity
  8
アジャスター_大昌H150_12
  6
CONTINUOUS
 62
     7
100
AcDbLine
 10
327.5686698504
 20
87.9847882458
 30
0.0
 11
327.5686698504
 21
87.1847882458
 31
0.0
  0
LINE
  5
4E6
330
3D0
100
AcDbEntity
  8
アジャスター_大昌H150_12
  6
CONTINUOUS
 62
     7
100
AcDbLine
 10
327.4186698504
 20
87.1847882458
 30
0.0
 11
327.7186698504
 21
87.1847882458
 31
0.0
  0
LINE
  5
4E7
330
3D0
100
AcDbEntity
  8
アジャスター_大昌H150_12
  6
CONTINUOUS
 62
     7
100
AcDbLine
 10
327.4186698504
 20
87.9847882458
 30
0.0
 11
327.4186698504
 21
87.1847882458
 31
0.0
  0
LINE
  5
4E8
330
3D0
100
AcDbEntity
  8
アジャスター_大昌H150_12
  6
CONTINUOUS
 62
     7
100
AcDbLine
 10
327.7186698504
 20
87.9847882458
 30
0.0
 11
327.7186698504
 21
87.1847882458
 31
0.0
  0
LINE
  5
4E9
330
3D0
100
AcDbEntity
  8
アジャスター_大昌H150_12
  6
CONTINUOUS
 62
     7
100
AcDbLine
 10
327.4186698504
 20
87.9847882458
 30
0.0
 11
327.7186698504
 21
87.9847882458
 31
0.0
  0
LINE
  5
4EA
330
3D0
100
AcDbEntity
  8
アジャスター_大昌H150_12
  6
CONTINUOUS
 62
     7
100
AcDbLine
 10
326.989262986
 20
87.9847882458
 30
0.0
 11
326.989262986
 21
87.1847882458
 31
0.0
  0
LINE
  5
4EB
330
3D0
100
AcDbEntity
  8
アジャスター_大昌H150_12
  6
CONTINUOUS
 62
     7
100
AcDbLine
 10
326.832962352
 20
87.1847882458
 30
0.0
 11
327.1182793069
 21
87.1847882458
 31
0.0
  0
LINE
  5
4EC
330
3D0
100
AcDbEntity
  8
アジャスター_大昌H150_12
  6
CONTINUOUS
 62
     7
100
AcDbLine
 10
326.832962352
 20
87.9847882458
 30
0.0
 11
326.832962352
 21
87.1847882458
 31
0.0
  0
LINE
  5
4ED
330
3D0
100
AcDbEntity
  8
アジャスター_大昌H150_12
  6
CONTINUOUS
 62
     7
100
AcDbLine
 10
327.1182793069
 20
87.9847882458
 30
0.0
 11
327.1182793069
 21
87.1847882458
 31
0.0
  0
LINE
  5
4EE
330
3D0
100
AcDbEntity
  8
アジャスター_大昌H150_12
  6
CONTINUOUS
 62
     7
100
AcDbLine
 10
326.832962352
 20
87.9847882458
 30
0.0
 11
327.1182793069
 21
87.9847882458
 31
0.0
  0
LINE
  5
4EF
330
3D0
100
AcDbEntity
  8
アジャスター_大昌H150_12
  6
CONTINUOUS
 62
     7
100
AcDbLine
 10
326.4665725024
 20
87.9847882458
 30
0.0
 11
326.4665725024
 21
87.1847882458
 31
0.0
  0
LINE
  5
4F0
330
3D0
100
AcDbEntity
  8
アジャスター_大昌H150_12
  6
CONTINUOUS
 62
     7
100
AcDbLine
 10
326.3192710295
 20
87.1847882458
 30
0.0
 11
326.5619761278
 21
87.1847882458
 31
0.0
  0
LINE
  5
4F1
330
3D0
100
AcDbEntity
  8
アジャスター_大昌H150_12
  6
CONTINUOUS
 62
     7
100
AcDbLine
 10
326.3192710295
 20
87.9847882458
 30
0.0
 11
326.3192710295
 21
87.1847882458
 31
0.0
  0
LINE
  5
4F2
330
3D0
100
AcDbEntity
  8
アジャスター_大昌H150_12
  6
CONTINUOUS
 62
     7
100
AcDbLine
 10
326.5619761278
 20
87.9847882458
 30
0.0
 11
326.5619761278
 21
87.1847882458
 31
0.0
  0
LINE
  5
4F3
330
3D0
100
AcDbEntity
  8
アジャスター_大昌H150_12
  6
CONTINUOUS
 62
     7
100
AcDbLine
 10
326.3192710295
 20
87.9847882458
 30
0.0
 11
326.5619761278
 21
87.9847882458
 31
0.0
  0
LINE
  5
4F4
330
3D0
100
AcDbEntity
  8
アジャスター_大昌H150_12
  6
CONTINUOUS
 62
     7
100
AcDbLine
 10
326.051762986
 20
87.9847882458
 30
0.0
 11
326.051762986
 21
87.1847882458
 31
0.0
  0
LINE
  5
4F5
330
3D0
100
AcDbEntity
  8
アジャスター_大昌H150_12
  6
CONTINUOUS
 62
     7
100
AcDbLine
 10
325.9278795686
 20
87.1847882458
 30
0.0
 11
326.1042151443
 21
87.1847882458
 31
0.0
  0
LINE
  5
4F6
330
3D0
100
AcDbEntity
  8
アジャスター_大昌H150_12
  6
CONTINUOUS
 62
     7
100
AcDbLine
 10
325.9278795686
 20
87.9847882458
 30
0.0
 11
325.9278795686
 21
87.1847882458
 31
0.0
  0
LINE
  5
4F7
330
3D0
100
AcDbEntity
  8
アジャスター_大昌H150_12
  6
CONTINUOUS
 62
     7
100
AcDbLine
 10
326.1042151443
 20
87.9847882458
 30
0.0
 11
326.1042151443
 21
87.1847882458
 31
0.0
  0
LINE
  5
4F8
330
3D0
100
AcDbEntity
  8
アジャスター_大昌H150_12
  6
CONTINUOUS
 62
     7
100
AcDbLine
 10
325.9278795686
 20
87.9847882458
 30
0.0
 11
326.1042151443
 21
87.9847882458
 31
0.0
  0
LINE
  5
4F9
330
3D0
100
AcDbEntity
  8
アジャスター_大昌H150_12
  6
CONTINUOUS
 62
     7
100
AcDbLine
 10
325.7854388824
 20
87.9847882458
 30
0.0
 11
325.7854388824
 21
87.1847882458
 31
0.0
  0
LINE
  5
4FA
330
3D0
100
AcDbEntity
  8
アジャスター_大昌H150_12
  6
CONTINUOUS
 62
     7
100
AcDbLine
 10
325.6971000926
 20
87.1847882458
 30
0.0
 11
325.7898051909
 21
87.1847882458
 31
0.0
  0
LINE
  5
4FB
330
3D0
100
AcDbEntity
  8
アジャスター_大昌H150_12
  6
CONTINUOUS
 62
     7
100
AcDbLine
 10
325.6971000926
 20
87.9847882458
 30
0.0
 11
325.6971000926
 21
87.1847882458
 31
0.0
  0
LINE
  5
4FC
330
3D0
100
AcDbEntity
  8
アジャスター_大昌H150_12
  6
CONTINUOUS
 62
     7
100
AcDbLine
 10
325.7898051909
 20
87.9847882458
 30
0.0
 11
325.7898051909
 21
87.1847882458
 31
0.0
  0
LINE
  5
4FD
330
3D0
100
AcDbEntity
  8
アジャスター_大昌H150_12
  6
CONTINUOUS
 62
     7
100
AcDbLine
 10
325.6971000926
 20
87.9847882458
 30
0.0
 11
325.7898051909
 21
87.9847882458
 31
0.0
  0
LINE
  5
4FE
330
3D0
100
AcDbEntity
  8
アジャスター_大昌H150_12
  6
CONTINUOUS
 62
     7
100
AcDbLine
 10
325.6495229045
 20
87.1847882458
 30
0.0
 11
325.6436698504
 21
87.1847882458
 31
0.0
  0
LINE
  5
4FF
330
3D0
100
AcDbEntity
  8
アジャスター_大昌H150_12
  6
CONTINUOUS
 62
     7
100
AcDbLine
 10
325.6495229045
 20
87.9847882458
 30
0.0
 11
325.6495229045
 21
87.1847882458
 31
0.0
  0
LINE
  5
500
330
3D0
100
AcDbEntity
  8
アジャスター_大昌H150_12
  6
CONTINUOUS
 62
     7
100
AcDbLine
 10
325.6495229045
 20
87.9847882458
 30
0.0
 11
325.6436698504
 21
87.9847882458
 31
0.0
  0
LINE
  5
501
330
3D0
100
AcDbEntity
  8
アジャスター_大昌H150_12
  6
CONTINUOUS
 62
     7
100
AcDbLine
 10
328.0686698504
 20
88.0847882458
 30
0.0
 11
328.0686698504
 21
89.0647882458
 31
0.0
  0
LINE
  5
502
330
3D0
100
AcDbEntity
  8
アジャスター_大昌H150_12
  6
CONTINUOUS
 62
     7
100
AcDbLine
 10
328.0686698504
 20
89.6647882458
 30
0.0
 11
328.0686698504
 21
90.8847882458
 31
0.0
  0
LINE
  5
503
330
3D0
100
AcDbEntity
  8
アジャスター_大昌H150_12
  6
CONTINUOUS
 62
     7
100
AcDbLine
 10
327.0686698504
 20
90.8847882458
 30
0.0
 11
327.0686698504
 21
89.6647882458
 31
0.0
  0
LINE
  5
504
330
3D0
100
AcDbEntity
  8
アジャスター_大昌H150_12
  6
CONTINUOUS
 62
     7
100
AcDbLine
 10
327.0686698504
 20
89.0647882458
 30
0.0
 11
327.0686698504
 21
88.0847882458
 31
0.0
  0
ARC
  5
505
330
3D0
100
AcDbEntity
  8
アジャスター_大昌H150_12
  6
CONTINUOUS
 62
     7
100
AcDbCircle
 10
325.7436698504
 20
87.1847882458
 30
0.0
 40
0.1000000000000001
100
AcDbArc
 50
180.0
 51
270.0
  0
ARC
  5
506
330
3D0
100
AcDbEntity
  8
アジャスター_大昌H150_12
  6
CONTINUOUS
 62
     7
100
AcDbCircle
 10
329.3936698504
 20
87.1847882458
 30
0.0
 40
0.1
100
AcDbArc
 50
270.0
 51
0.0
  0
LINE
  5
507
330
3D0
100
AcDbEntity
  8
アジャスター_大昌H150_12
  6
CONTINUOUS
 62
     7
100
AcDbLine
 10
329.4936698504
 20
87.9847882458
 30
0.0
 11
329.4936698504
 21
88.0847882458
 31
0.0
  0
LINE
  5
508
330
3D0
100
AcDbEntity
  8
アジャスター_大昌H150_12
  6
CONTINUOUS
 62
     7
100
AcDbLine
 10
325.6436698504
 20
88.0847882458
 30
0.0
 11
325.6436698504
 21
87.9847882458
 31
0.0
  0
LINE
  5
50A
330
3D0
100
AcDbEntity
  8
転点防止固定金具150407_0
  6
CONTINUOUS
 62
     7
100
AcDbLine
 10
325.8186698504
 20
97.9147882458
 30
0.0
 11
325.8186698504
 21
95.3147882458
 31
0.0
  0
LINE
  5
50B
330
3D0
100
AcDbEntity
  8
転点防止固定金具150407_0
  6
CONTINUOUS
 62
     7
100
AcDbLine
 10
326.2686698504
 20
97.9147882458
 30
0.0
 11
326.2686698504
 21
95.3147882458
 31
0.0
  0
LINE
  5
50C
330
3D0
100
AcDbEntity
  8
転点防止固定金具150407_0
  6
CONTINUOUS
 62
     7
100
AcDbLine
 10
326.2686698504
 20
95.1147882458
 30
0.0
 11
325.8186698504
 21
95.1147882458
 31
0.0
  0
LINE
  5
50D
330
3D0
100
AcDbEntity
  8
転点防止固定金具150407_0
  6
CONTINUOUS
 62
     7
100
AcDbLine
 10
326.2686698504
 20
95.3147882458
 30
0.0
 11
326.2686698504
 21
95.1147882458
 31
0.0
  0
LINE
  5
50E
330
3D0
100
AcDbEntity
  8
転点防止固定金具150407_0
  6
CONTINUOUS
 62
     7
100
AcDbLine
 10
325.8186698504
 20
95.1147882458
 30
0.0
 11
325.8186698504
 21
95.3147882458
 31
0.0
  0
LINE
  5
510
330
3D0
100
AcDbEntity
  8
平座金_並形__8_18_1_6
  6
CONTINUOUS
 62
     7
100
AcDbLine
 10
327.2286698504
 20
95.9647882458
 30
0.0
 11
327.2286698504
 21
97.7647882458
 31
0.0
  0
LINE
  5
511
330
3D0
100
AcDbEntity
  8
平座金_並形__8_18_1_6
  6
CONTINUOUS
 62
     7
100
AcDbLine
 10
327.0686698504
 20
95.9647882458
 30
0.0
 11
327.2286698504
 21
95.9647882458
 31
0.0
  0
LINE
  5
512
330
3D0
100
AcDbEntity
  8
平座金_並形__8_18_1_6
  6
CONTINUOUS
 62
     7
100
AcDbLine
 10
327.2286698504
 20
97.7647882458
 30
0.0
 11
327.0686698504
 21
97.7647882458
 31
0.0
  0
LINE
  5
514
330
3D0
100
AcDbEntity
  8
Uナット130620_M8__0
  6
CONTINUOUS
 62
     7
100
AcDbLine
 10
325.2086698504
 20
96.2147882458
 30
0.0
 11
325.2086698504
 21
96.3018717333
 31
0.0
  0
LINE
  5
515
330
3D0
100
AcDbEntity
  8
Uナット130620_M8__0
  6
CONTINUOUS
 62
     7
100
AcDbLine
 10
325.2086698504
 20
97.4277047583
 30
0.0
 11
325.2086698504
 21
97.5147882458
 31
0.0
  0
LINE
  5
516
330
3D0
100
AcDbEntity
  8
Uナット130620_M8__0
  6
CONTINUOUS
 62
     7
100
AcDbLine
 10
325.2086698504
 20
96.3018717333
 30
0.0
 11
325.2086698504
 21
96.8647882458
 31
0.0
  0
LINE
  5
517
330
3D0
100
AcDbEntity
  8
Uナット130620_M8__0
  6
CONTINUOUS
 62
     7
100
AcDbLine
 10
325.2667255088
 20
97.2400659208
 30
0.0
 11
325.7606141921
 21
97.2400659208
 31
0.0
  0
LINE
  5
518
330
3D0
100
AcDbEntity
  8
Uナット130620_M8__0
  6
CONTINUOUS
 62
     7
100
AcDbLine
 10
325.2667255088
 20
96.4895105708
 30
0.0
 11
325.7606141921
 21
96.4895105708
 31
0.0
  0
LINE
  5
519
330
3D0
100
AcDbEntity
  8
Uナット130620_M8__0
  6
CONTINUOUS
 62
     7
100
AcDbLine
 10
325.2667255088
 20
96.1142328958
 30
0.0
 11
325.7606141921
 21
96.1142328958
 31
0.0
  0
LINE
  5
51A
330
3D0
100
AcDbEntity
  8
Uナット130620_M8__0
  6
CONTINUOUS
 62
     7
100
AcDbLine
 10
325.2667255088
 20
97.6153435957
 30
0.0
 11
325.7606141921
 21
97.6153435957
 31
0.0
  0
LINE
  5
51B
330
3D0
100
AcDbEntity
  8
Uナット130620_M8__0
  6
CONTINUOUS
 62
     7
100
AcDbLine
 10
325.2086698504
 20
97.4277047583
 30
0.0
 11
325.2086698504
 21
96.8647882458
 31
0.0
  0
SPLINE
  5
51C
330
3D0
100
AcDbEntity
  8
Uナット130620_M8__0
  6
CONTINUOUS
 62
     7
100
AcDbSpline
210
0.0
220
0.0
230
1.0
 70
     8
 71
     3
 72
    10
 73
     6
 74
     0
 42
0.0000000262228226
 43
0.0000000001
 40
0.0
 40
0.0
 40
0.0
 40
0.0
 40
0.5
 40
0.5
 40
1.0
 40
1.0
 40
1.0
 40
1.0
 10
325.2086698504215
 20
96.86478824579098
 30
0.0
 10
325.2086698504215
 20
96.92824668414505
 30
0.0
 10
325.2141273159505
 20
96.99125176838152
 30
0.0
 10
325.2343239837109
 20
97.11649089880937
 30
0.0
 10
325.2490937106905
 20
97.17898758051953
 30
0.0
 10
325.2667255087816
 20
97.24006592076424
 30
0.0
  0
LINE
  5
51D
330
3D0
100
AcDbEntity
  8
Uナット130620_M8__0
  6
CONTINUOUS
 62
     7
100
AcDbLine
 10
325.2667255088
 20
97.2400659208
 30
0.0
 11
325.2086698504
 21
97.4277047583
 31
0.0
  0
ARC
  5
51E
330
3D0
100
AcDbEntity
  8
Uナット130620_M8__0
  6
CONTINUOUS
 62
     7
100
AcDbCircle
 10
325.5753613233
 20
97.417050682
 30
0.0
 40
0.3668462152416064
100
AcDbArc
 50
147.2799906267
 51
178.3357619053
  0
LINE
  5
51F
330
3D0
100
AcDbEntity
  8
Uナット130620_M8__0
  6
CONTINUOUS
 62
     7
100
AcDbLine
 10
325.2667255088
 20
96.1142328958
 30
0.0
 11
325.2086698504
 21
96.3018717333
 31
0.0
  0
ARC
  5
520
330
3D0
100
AcDbEntity
  8
Uナット130620_M8__0
  6
CONTINUOUS
 62
     7
100
AcDbCircle
 10
325.5753613233
 20
96.2912176571
 30
0.0
 40
0.3668462152415015
100
AcDbArc
 50
147.2799906267
 51
178.3357619053
  0
SPLINE
  5
521
330
3D0
100
AcDbEntity
  8
Uナット130620_M8__0
  6
CONTINUOUS
 62
     7
100
AcDbSpline
210
0.0
220
0.0
230
1.0
 70
     8
 71
     3
 72
    10
 73
     6
 74
     0
 42
0.0000000262228365
 43
0.0000000001
 40
0.0
 40
0.0
 40
0.0
 40
0.0
 40
0.5
 40
0.5
 40
1.0
 40
1.0
 40
1.0
 40
1.0
 10
325.2667255087816
 20
96.48951057081774
 30
0.0
 10
325.2492058322168
 20
96.5502005107023
 30
0.0
 10
325.234621822577
 20
96.61166939438189
 30
0.0
 10
325.2142811823322
 20
96.73694940025148
 30
0.0
 10
325.2086698504215
 20
96.80128644678052
 30
0.0
 10
325.2086698504215
 20
96.86478824579098
 30
0.0
  0
LINE
  5
522
330
3D0
100
AcDbEntity
  8
Uナット130620_M8__0
  6
CONTINUOUS
 62
     7
100
AcDbLine
 10
325.7606141921
 20
97.6153435957
 30
0.0
 11
325.8186698504
 21
97.4277047583
 31
0.0
  0
ARC
  5
523
330
3D0
100
AcDbEntity
  8
Uナット130620_M8__0
  6
CONTINUOUS
 62
     7
100
AcDbCircle
 10
325.4519783775
 20
97.4383588345
 30
0.0
 40
0.3668462152418008
100
AcDbArc
 50
327.2799906267
 51
358.3357619053
  0
SPLINE
  5
524
330
3D0
100
AcDbEntity
  8
Uナット130620_M8__0
  6
CONTINUOUS
 62
     7
100
AcDbSpline
210
0.0
220
0.0
230
1.0
 70
     8
 71
     3
 72
    10
 73
     6
 74
     0
 42
0.0000000262228226
 43
0.0000000001
 40
0.0
 40
0.0
 40
0.0
 40
0.0
 40
0.4999999999999999
 40
0.4999999999999999
 40
1.0
 40
1.0
 40
1.0
 40
1.0
 10
325.7606141920614
 20
97.24006592076424
 30
0.0
 10
325.7782459901524
 20
97.17898758051953
 30
0.0
 10
325.7930157171321
 20
97.11649089880939
 30
0.0
 10
325.8132123848924
 20
96.99125176838153
 30
0.0
 10
325.8186698504215
 20
96.92824668414505
 30
0.0
 10
325.8186698504215
 20
96.86478824579098
 30
0.0
  0
SPLINE
  5
525
330
3D0
100
AcDbEntity
  8
Uナット130620_M8__0
  6
CONTINUOUS
 62
     7
100
AcDbSpline
210
0.0
220
0.0
230
1.0
 70
     8
 71
     3
 72
    10
 73
     6
 74
     0
 42
0.0000000262228365
 43
0.0000000001
 40
0.0
 40
0.0
 40
0.0
 40
0.0
 40
0.5
 40
0.5
 40
1.0
 40
1.0
 40
1.0
 40
1.0
 10
325.8186698504215
 20
96.86478824579098
 30
0.0
 10
325.8186698504215
 20
96.80128644678051
 30
0.0
 10
325.8130585185107
 20
96.73694940025149
 30
0.0
 10
325.792717878266
 20
96.61166939438189
 30
0.0
 10
325.7781338686261
 20
96.55020051070231
 30
0.0
 10
325.7606141920614
 20
96.48951057081774
 30
0.0
  0
LINE
  5
526
330
3D0
100
AcDbEntity
  8
Uナット130620_M8__0
  6
CONTINUOUS
 62
     7
100
AcDbLine
 10
325.7606141921
 20
96.4895105708
 30
0.0
 11
325.8186698504
 21
96.3018717333
 31
0.0
  0
ARC
  5
527
330
3D0
100
AcDbEntity
  8
Uナット130620_M8__0
  6
CONTINUOUS
 62
     7
100
AcDbCircle
 10
325.4519783775
 20
96.3125258095
 30
0.0
 40
0.3668462152416081
100
AcDbArc
 50
327.2799906267
 51
358.3357619053
  0
LINE
  5
528
330
3D0
100
AcDbEntity
  8
Uナット130620_M8__0
  6
CONTINUOUS
 62
     7
100
AcDbLine
 10
325.2667255088
 20
97.6153435957
 30
0.0
 11
325.2086698504
 21
97.5147882458
 31
0.0
  0
LINE
  5
529
330
3D0
100
AcDbEntity
  8
Uナット130620_M8__0
  6
CONTINUOUS
 62
     7
100
AcDbLine
 10
325.2086698504
 20
96.2147882458
 30
0.0
 11
325.2667255088
 21
96.1142328958
 31
0.0
  0
LINE
  5
52A
330
3D0
100
AcDbEntity
  8
Uナット130620_M8__0
  6
CONTINUOUS
 62
     7
100
AcDbLine
 10
325.8186698504
 20
97.5147882458
 30
0.0
 11
325.7606141921
 21
97.6153435957
 31
0.0
  0
LINE
  5
52B
330
3D0
100
AcDbEntity
  8
Uナット130620_M8__0
  6
CONTINUOUS
 62
     7
100
AcDbLine
 10
325.7606141921
 20
96.1142328958
 30
0.0
 11
325.8186698504
 21
96.2147882458
 31
0.0
  0
LINE
  5
52C
330
3D0
100
AcDbEntity
  8
Uナット130620_M8__0
  6
CONTINUOUS
 62
     7
100
AcDbLine
 10
325.2086698504
 20
97.5147882458
 30
0.0
 11
325.1636698504
 21
97.5147882458
 31
0.0
  0
LINE
  5
52D
330
3D0
100
AcDbEntity
  8
Uナット130620_M8__0
  6
CONTINUOUS
 62
     7
100
AcDbLine
 10
325.1636698504
 20
96.2147882458
 30
0.0
 11
325.2086698504
 21
96.2147882458
 31
0.0
  0
ARC
  5
52E
330
3D0
100
AcDbEntity
  8
Uナット130620_M8__0
  6
CONTINUOUS
 62
     7
100
AcDbCircle
 10
325.1636698504
 20
96.2897882458
 30
0.0
 40
0.0749999999999917
100
AcDbArc
 50
180.0
 51
270.0
  0
ARC
  5
52F
330
3D0
100
AcDbEntity
  8
Uナット130620_M8__0
  6
CONTINUOUS
 62
     7
100
AcDbCircle
 10
325.1636698504
 20
97.4397882458
 30
0.0
 40
0.0750000000000001
100
AcDbArc
 50
90.0
 51
180.0
  0
LINE
  5
530
330
3D0
100
AcDbEntity
  8
Uナット130620_M8__0
  6
CONTINUOUS
 62
     7
100
AcDbLine
 10
325.0886698504
 20
97.4397882458
 30
0.0
 11
325.0886698504
 21
96.2897882458
 31
0.0
  0
LINE
  5
532
330
3D0
100
AcDbEntity
  8
皿ばね110221_DB-8__
  6
CONTINUOUS
 62
     7
100
AcDbLine
 10
327.318302034
 20
96.0647882458
 30
0.0
 11
327.318302034
 21
97.6647882458
 31
0.0
  0
LINE
  5
533
330
3D0
100
AcDbEntity
  8
皿ばね110221_DB-8__
  6
CONTINUOUS
 62
     7
100
AcDbLine
 10
327.318302034
 20
96.0647882458
 30
0.0
 11
327.3536698504
 21
96.4547882458
 31
0.0
  0
LINE
  5
534
330
3D0
100
AcDbEntity
  8
皿ばね110221_DB-8__
  6
CONTINUOUS
 62
     7
100
AcDbLine
 10
327.3536698504
 20
97.2747882458
 30
0.0
 11
327.318302034
 21
97.6647882458
 31
0.0
  0
LINE
  5
535
330
3D0
100
AcDbEntity
  8
皿ばね110221_DB-8__
  6
CONTINUOUS
 62
     7
100
AcDbLine
 10
327.318302034
 20
97.6647882458
 30
0.0
 11
327.2286698504
 21
97.6566597981
 31
0.0
  0
LINE
  5
536
330
3D0
100
AcDbEntity
  8
皿ばね110221_DB-8__
  6
CONTINUOUS
 62
     7
100
AcDbLine
 10
327.2286698504
 20
96.0729166935
 30
0.0
 11
327.318302034
 21
96.0647882458
 31
0.0
  0
LINE
  5
538
330
3D0
100
AcDbEntity
  8
六角穴付ボタンボルト110427
  6
CONTINUOUS
 62
     7
100
AcDbLine
 10
327.4536698504
 20
97.5647882458
 30
0.0
 11
327.4536698504
 21
96.1647882458
 31
0.0
  0
LINE
  5
539
330
3D0
100
AcDbEntity
  8
六角穴付ボタンボルト110427
  6
CONTINUOUS
 62
     7
100
AcDbLine
 10
327.8536698504
 20
97.3147882458
 30
0.0
 11
327.8536698504
 21
96.4147882458
 31
0.0
  0
LINE
  5
53A
330
3D0
100
AcDbEntity
  8
六角穴付ボタンボルト110427
  6
CONTINUOUS
 62
     7
100
AcDbLine
 10
324.8536698504
 20
97.2647882458
 30
0.0
 11
324.8536698504
 21
96.4647882458
 31
0.0
  0
LINE
  5
53B
330
3D0
100
AcDbEntity
  8
六角穴付ボタンボルト110427
  6
CONTINUOUS
 62
     7
100
AcDbLine
 10
327.3536698504
 20
97.5647882458
 30
0.0
 11
327.3536698504
 21
96.1647882458
 31
0.0
  0
ARC
  5
53C
330
3D0
100
AcDbEntity
  8
六角穴付ボタンボルト110427
  6
CONTINUOUS
 62
     7
100
AcDbCircle
 10
327.2942948504
 20
96.8647882458
 30
0.0
 40
0.7179139158875534
100
AcDbArc
 50
282.8263751823
 51
321.1843912339
  0
ARC
  5
53D
330
3D0
100
AcDbEntity
  8
六角穴付ボタンボルト110427
  6
CONTINUOUS
 62
     7
100
AcDbCircle
 10
327.2942948504
 20
96.8647882458
 30
0.0
 40
0.7179139158875449
100
AcDbArc
 50
38.8156087661
 51
77.1736248177
  0
LINE
  5
53E
330
3D0
100
AcDbEntity
  8
六角穴付ボタンボルト110427
  6
CONTINUOUS
 62
     7
100
AcDbLine
 10
324.8536698504
 20
96.4647882458
 30
0.0
 11
325.0886698504
 21
96.4647882458
 31
0.0
  0
LINE
  5
53F
330
3D0
100
AcDbEntity
  8
六角穴付ボタンボルト110427
  6
CONTINUOUS
 62
     7
100
AcDbLine
 10
325.0886698504
 20
97.2647882458
 30
0.0
 11
324.8536698504
 21
97.2647882458
 31
0.0
  0
LINE
  5
540
330
3D0
100
AcDbEntity
  8
六角穴付ボタンボルト110427
  6
CONTINUOUS
 62
     7
100
AcDbLine
 10
327.3536698504
 20
96.1647882458
 30
0.0
 11
327.4536698504
 21
96.1647882458
 31
0.0
  0
LINE
  5
541
330
3D0
100
AcDbEntity
  8
六角穴付ボタンボルト110427
  6
CONTINUOUS
 62
     7
100
AcDbLine
 10
327.4536698504
 20
97.5647882458
 30
0.0
 11
327.3536698504
 21
97.5647882458
 31
0.0
  0
LINE
  5
543
330
3D0
100
AcDbEntity
  8
製品デカル150204_ロゴ_商
  6
CONTINUOUS
 62
     7
100
AcDbLine
 10
329.3886698504
 20
99.2647882458
 30
0.0
 11
329.3686698504
 21
99.2647882458
 31
0.0
  0
LINE
  5
544
330
3D0
100
AcDbEntity
  8
製品デカル150204_ロゴ_商
  6
CONTINUOUS
 62
     7
100
AcDbLine
 10
329.3886698504
 20
99.4147882458
 30
0.0
 11
329.3886698504
 21
101.1147882458
 31
0.0
  0
LINE
  5
545
330
3D0
100
AcDbEntity
  8
製品デカル150204_ロゴ_商
  6
CONTINUOUS
 62
     7
100
AcDbLine
 10
329.3886698504
 20
101.2647882458
 30
0.0
 11
329.3886698504
 21
101.1147882458
 31
0.0
  0
LINE
  5
546
330
3D0
100
AcDbEntity
  8
製品デカル150204_ロゴ_商
  6
CONTINUOUS
 62
     7
100
AcDbLine
 10
329.3886698504
 20
99.4147882458
 30
0.0
 11
329.3886698504
 21
99.2647882458
 31
0.0
  0
LINE
  5
547
330
3D0
100
AcDbEntity
  8
製品デカル150204_ロゴ_商
  6
CONTINUOUS
 62
     7
100
AcDbLine
 10
329.3686698504
 20
101.2647882458
 30
0.0
 11
329.3886698504
 21
101.2647882458
 31
0.0
  0
LINE
  5
549
330
3D0
100
AcDbEntity
  8
CC-0822-10_0
  6
CONTINUOUS
 62
     7
100
AcDbLine
 10
326.2686698504
 20
95.7647882458
 30
0.0
 11
326.3686698504
 21
95.7647882458
 31
0.0
  0
LINE
  5
54A
330
3D0
100
AcDbEntity
  8
CC-0822-10_0
  6
CONTINUOUS
 62
     7
100
AcDbLine
 10
327.0686698504
 20
97.9147882458
 30
0.0
 11
327.0686698504
 21
95.7647882458
 31
0.0
  0
LINE
  5
54B
330
3D0
100
AcDbEntity
  8
CC-0822-10_0
  6
CONTINUOUS
 62
     7
100
AcDbLine
 10
326.9686698504
 20
95.7647882458
 30
0.0
 11
327.0686698504
 21
95.7647882458
 31
0.0
  0
LINE
  5
54C
330
3D0
100
AcDbEntity
  8
ﾐﾗｰ転点防止金具_後_1608
  6
CONTINUOUS
 62
     7
100
AcDbLine
 10
326.9686698504
 20
94.1147882458
 30
0.0
 11
329.2686698504
 21
92.7868826267
 31
0.0
  0
LINE
  5
54D
330
3D0
100
AcDbEntity
  8
ﾐﾗｰ転点防止金具_後_1608
  6
CONTINUOUS
 62
     7
100
AcDbLine
 10
326.6686698504
 20
93.5951730035
 30
0.0
 11
328.9686698504
 21
92.2672673844
 31
0.0
  0
ARC
  5
54E
330
3D0
100
AcDbEntity
  8
ﾐﾗｰ転点防止金具_後_1608
  6
CONTINUOUS
 62
     7
100
AcDbCircle
 10
328.9686698504
 20
89.6647882458
 30
0.0
 40
0.5999999999999999
100
AcDbArc
 50
270.0
 51
0.0
  0
LINE
  5
54F
330
3D0
100
AcDbEntity
  8
ﾐﾗｰ転点防止金具_後_1608
  6
CONTINUOUS
 62
     7
100
AcDbLine
 10
328.9686698504
 20
89.6647882458
 30
0.0
 11
328.9686698504
 21
92.2672673844
 31
0.0
  0
LINE
  5
550
330
3D0
100
AcDbEntity
  8
ﾐﾗｰ転点防止金具_後_1608
  6
CONTINUOUS
 62
     7
100
AcDbLine
 10
329.5686698504
 20
89.6647882458
 30
0.0
 11
329.5686698504
 21
92.2672673844
 31
0.0
  0
ARC
  5
551
330
3D0
100
AcDbEntity
  8
ﾐﾗｰ転点防止金具_後_1608
  6
CONTINUOUS
 62
     7
100
AcDbCircle
 10
328.9686698504
 20
92.2672673844
 30
0.0
 40
0.6000000000000006
100
AcDbArc
 50
0.0
 51
60.0
  0
ARC
  5
552
330
3D0
100
AcDbEntity
  8
ﾐﾗｰ転点防止金具_後_1608
  6
CONTINUOUS
 62
     7
100
AcDbCircle
 10
326.9686698504
 20
94.1147882458
 30
0.0
 40
0.5999999999999975
100
AcDbArc
 50
180.0
 51
240.0
  0
LINE
  5
553
330
3D0
100
AcDbEntity
  8
ﾐﾗｰ転点防止金具_後_1608
  6
CONTINUOUS
 62
     7
100
AcDbLine
 10
325.0929591723
 20
96.2647882458
 30
0.0
 11
324.7686698504
 21
96.2647882458
 31
0.0
  0
LINE
  5
554
330
3D0
100
AcDbEntity
  8
ﾐﾗｰ転点防止金具_後_1608
  6
CONTINUOUS
 62
     7
100
AcDbLine
 10
326.3686698504
 20
96.8647882458
 30
0.0
 11
326.3686698504
 21
94.1147882458
 31
0.0
  0
LINE
  5
555
330
3D0
100
AcDbEntity
  8
ﾐﾗｰ転点防止金具_後_1608
  6
CONTINUOUS
 62
     7
100
AcDbLine
 10
326.3686698504
 20
97.9147882458
 30
0.0
 11
326.3686698504
 21
96.8647882458
 31
0.0
  0
LINE
  5
556
330
3D0
100
AcDbEntity
  8
ﾐﾗｰ転点防止金具_後_1608
  6
CONTINUOUS
 62
     7
100
AcDbLine
 10
326.9686698504
 20
96.8647882458
 30
0.0
 11
326.9686698504
 21
94.1147882458
 31
0.0
  0
LINE
  5
557
330
3D0
100
AcDbEntity
  8
ﾐﾗｰ転点防止金具_後_1608
  6
CONTINUOUS
 62
     7
100
AcDbLine
 10
326.9686698504
 20
96.8647882458
 30
0.0
 11
326.9686698504
 21
97.9147882458
 31
0.0
  0
LINE
  5
558
330
3D0
100
AcDbEntity
  8
ﾐﾗｰ転点防止金具_後_1608
  6
CONTINUOUS
 62
     7
100
AcDbLine
 10
325.1171526062
 20
94.7647882458
 30
0.0
 11
326.3686698504
 21
94.7647882458
 31
0.0
  0
LINE
  5
559
330
3D0
100
AcDbEntity
  8
ﾐﾗｰ転点防止金具_後_1608
  6
CONTINUOUS
 62
     7
100
AcDbLine
 10
324.9439475254
 20
94.8647882458
 30
0.0
 11
324.5954647697
 21
95.4683780843
 31
0.0
  0
LINE
  5
55A
330
3D0
100
AcDbEntity
  8
ﾐﾗｰ転点防止金具_後_1608
  6
CONTINUOUS
 62
     7
100
AcDbLine
 10
324.5686698504
 20
96.0647882458
 30
0.0
 11
324.5686698504
 21
95.5683780843
 31
0.0
  0
ARC
  5
55B
330
3D0
100
AcDbEntity
  8
ﾐﾗｰ転点防止金具_後_1608
  6
CONTINUOUS
 62
     7
100
AcDbCircle
 10
324.7686698504
 20
96.0647882458
 30
0.0
 40
0.2000000000000002
100
AcDbArc
 50
90.0
 51
180.0
  0
ARC
  5
55C
330
3D0
100
AcDbEntity
  8
ﾐﾗｰ転点防止金具_後_1608
  6
CONTINUOUS
 62
     7
100
AcDbCircle
 10
324.7686698504
 20
95.5683780843
 30
0.0
 40
0.2000000000000008
100
AcDbArc
 50
180.0
 51
210.0
  0
ARC
  5
55D
330
3D0
100
AcDbEntity
  8
ﾐﾗｰ転点防止金具_後_1608
  6
CONTINUOUS
 62
     7
100
AcDbCircle
 10
325.1171526062
 20
94.9647882458
 30
0.0
 40
0.1999999999999988
100
AcDbArc
 50
210.0
 51
270.0
  0
LINE
  5
55E
330
3D0
100
AcDbEntity
  8
ﾐﾗｰ転点防止金具_後_1608
  6
CONTINUOUS
 62
     7
100
AcDbLine
 10
326.3686698504
 20
89.6647882458
 30
0.0
 11
326.3686698504
 21
89.0647882458
 31
0.0
  0
LINE
  5
55F
330
3D0
100
AcDbEntity
  8
ﾐﾗｰ転点防止金具_後_1608
  6
CONTINUOUS
 62
     7
100
AcDbLine
 10
326.8686698504
 20
89.0647882458
 30
0.0
 11
328.9686698504
 21
89.0647882458
 31
0.0
  0
LINE
  5
560
330
3D0
100
AcDbEntity
  8
ﾐﾗｰ転点防止金具_後_1608
  6
CONTINUOUS
 62
     7
100
AcDbLine
 10
326.3686698504
 20
89.0647882458
 30
0.0
 11
326.8686698504
 21
89.0647882458
 31
0.0
  0
LINE
  5
561
330
3D0
100
AcDbEntity
  8
ﾐﾗｰ転点防止金具_後_1608
  6
CONTINUOUS
 62
     7
100
AcDbLine
 10
326.8686698504
 20
89.6647882458
 30
0.0
 11
328.9686698504
 21
89.6647882458
 31
0.0
  0
LINE
  5
562
330
3D0
100
AcDbEntity
  8
ﾐﾗｰ転点防止金具_後_1608
  6
CONTINUOUS
 62
     7
100
AcDbLine
 10
326.8686698504
 20
89.6647882458
 30
0.0
 11
326.3686698504
 21
89.6647882458
 31
0.0
  0
LINE
  5
563
330
3D0
100
AcDbEntity
  8
TE100N_S__150205
  6
CONTINUOUS
 62
     7
100
AcDbLine
 10
263.3186698504
 20
97.2847882458
 30
0.0
 11
262.5465417766
 21
97.2847882458
 31
0.0
  0
LINE
  5
564
330
3D0
100
AcDbEntity
  8
TE100N_S__150205
  6
CONTINUOUS
 62
     7
100
AcDbLine
 10
261.1186698504
 20
97.2847882458
 30
0.0
 11
261.8907979242
 21
97.2847882458
 31
0.0
  0
LINE
  5
565
330
3D0
100
AcDbEntity
  8
TE100N_S__150205
  6
CONTINUOUS
 62
     7
100
AcDbLine
 10
261.6377223485
 20
97.9147882458
 30
0.0
 11
261.6377223485
 21
97.3847882458
 31
0.0
  0
LINE
  5
566
330
3D0
100
AcDbEntity
  8
TE100N_S__150205
  6
CONTINUOUS
 62
     7
100
AcDbLine
 10
262.2186698504
 20
97.2847882458
 30
0.0
 11
261.8907979242
 21
97.2847882458
 31
0.0
  0
SPLINE
  5
567
330
3D0
100
AcDbEntity
  8
TE100N_S__150205
  6
CONTINUOUS
 62
     7
100
AcDbSpline
210
0.0
220
0.0
230
1.0
 70
     8
 71
     3
 72
    16
 73
    12
 74
     0
 42
0.0000000339078916
 43
0.0000000001
 40
0.0
 40
0.0
 40
0.0
 40
0.0
 40
0.2500000000000005
 40
0.2500000000000005
 40
0.5000000000000006
 40
0.5000000000000006
 40
0.7500000000000006
 40
0.7500000000000006
 40
0.8750000000000003
 40
0.8750000000000003
 40
1.0
 40
1.0
 40
1.0
 40
1.0
 10
261.8907979242064
 20
97.28478824579122
 30
0.0
 10
261.8664238046204
 20
97.28478824579122
 30
0.0
 10
261.8420356388691
 20
97.28555577699778
 30
0.0
 10
261.7932539912677
 20
97.28985406341432
 30
0.0
 10
261.7691181866913
 20
97.29332065567847
 30
0.0
 10
261.7217792415311
 20
97.30507205459506
 30
0.0
 10
261.6981112325846
 20
97.31333505216563
 30
0.0
 10
261.6671845123612
 20
97.33308869013878
 30
0.0
 10
261.6575681298615
 20
97.34099747819393
 30
0.0
 10
261.6427158409517
 20
97.36054737284155
 30
0.0
 10
261.6377223484903
 20
97.37247635293151
 30
0.0
 10
261.6377223484903
 20
97.38478824579121
 30
0.0
  0
LINE
  5
568
330
3D0
100
AcDbEntity
  8
TE100N_S__150205
  6
CONTINUOUS
 62
     7
100
AcDbLine
 10
262.7996173524
 20
97.9147882458
 30
0.0
 11
262.7996173524
 21
97.3847882458
 31
0.0
  0
SPLINE
  5
569
330
3D0
100
AcDbEntity
  8
TE100N_S__150205
  6
CONTINUOUS
 62
     7
100
AcDbSpline
210
0.0
220
0.0
230
1.0
 70
     8
 71
     3
 72
    18
 73
    14
 74
     0
 42
0.0000000339376881
 43
0.0000000001
 40
0.0
 40
0.0
 40
0.0
 40
0.0
 40
0.1250000000000007
 40
0.1250000000000007
 40
0.2500000000000014
 40
0.2500000000000014
 40
0.3750000000000021
 40
0.3750000000000021
 40
0.5000000000000028
 40
0.5000000000000028
 40
0.7500000000000016
 40
0.7500000000000016
 40
1.0
 40
1.0
 40
1.0
 40
1.0
 10
262.7996173523526
 20
97.38478824579121
 30
0.0
 10
262.7996173523526
 20
97.37230728781628
 30
0.0
 10
262.794615374719
 20
97.36047461011631
 30
0.0
 10
262.7795007772731
 20
97.34070378121973
 30
0.0
 10
262.7698608964102
 20
97.33285379163044
 30
0.0
 10
262.749029555041
 20
97.319644015141
 30
0.0
 10
262.7379735186768
 20
97.31441125830149
 30
0.0
 10
262.7151017350652
 20
97.3055736006971
 30
0.0
 10
262.7032434205336
 20
97.301996342916
 30
0.0
 10
262.6676828042272
 20
97.29322437337204
 30
0.0
 10
262.6436706276065
 20
97.28980993392281
 30
0.0
 10
262.5953223182399
 20
97.28556500335951
 30
0.0
 10
262.5709605806663
 20
97.28478824579122
 30
0.0
 10
262.5465417766366
 20
97.28478824579122
 30
0.0
  0
LINE
  5
56A
330
3D0
100
AcDbEntity
  8
TE100N_S__150205
  6
CONTINUOUS
 62
     7
100
AcDbLine
 10
262.5465417766
 20
97.2847882458
 30
0.0
 11
262.2186698504
 21
97.2847882458
 31
0.0
  0
ARC
  5
56B
330
3D0
100
AcDbEntity
  8
TE100N_S__150205
  6
CONTINUOUS
 62
     7
100
AcDbCircle
 10
259.9005079779
 20
92.4262535527
 30
0.0
 40
4.707599243424998
100
AcDbArc
 50
62.5723646125
 51
74.7227838952
  0
ARC
  5
56C
330
3D0
100
AcDbEntity
  8
TE100N_S__150205
  6
CONTINUOUS
 62
     7
100
AcDbCircle
 10
262.5954012339
 20
96.360565736
 30
0.0
 40
0.1073842773614241
100
AcDbArc
 50
180.3714101981
 51
201.8381973544
  0
LINE
  5
56D
330
3D0
100
AcDbEntity
  8
TE100N_S__150205
  6
CONTINUOUS
 62
     7
100
AcDbLine
 10
256.5740183145
 20
95.9516133705
 30
0.0
 11
256.604731802
 21
95.9150104614
 31
0.0
  0
LINE
  5
56E
330
3D0
100
AcDbEntity
  8
TE100N_S__150205
  6
CONTINUOUS
 62
     7
100
AcDbLine
 10
255.722909629
 20
94.9526704275
 30
0.0
 11
255.1805689206
 21
95.3324214798
 31
0.0
  0
CIRCLE
  5
56F
330
3D0
100
AcDbEntity
  8
TE100N_S__150205
  6
CONTINUOUS
 62
     7
100
AcDbCircle
 10
259.8186698504
 20
92.0847882458
 30
0.0
 40
5.000000000000001
  0
CIRCLE
  5
570
330
3D0
100
AcDbEntity
  8
TE100N_S__150205
  6
CONTINUOUS
 62
     7
100
AcDbCircle
 10
259.8186698504
 20
92.0847882458
 30
0.0
 40
4.2
  0
CIRCLE
  5
571
330
3D0
100
AcDbEntity
  8
TE100N_S__150205
  6
CONTINUOUS
 62
     7
100
AcDbCircle
 10
259.8186698504
 20
92.0847882458
 30
0.0
 40
1.75
  0
ARC
  5
572
330
3D0
100
AcDbEntity
  8
TE100N_S__150205
  6
CONTINUOUS
 62
     7
100
AcDbCircle
 10
254.7793281602
 20
96.1223691546
 30
0.0
 40
1.265258337346739
100
AcDbArc
 50
210.4196219935
 51
212.9231163913
  0
ARC
  5
573
330
3D0
100
AcDbEntity
  8
TE100N_S__150205
  6
CONTINUOUS
 62
     7
100
AcDbCircle
 10
253.9326698504
 20
95.3077882458
 30
0.0
 40
0.3000000000000089
100
AcDbArc
 50
144.5626391798
 51
209.1206842739
  0
ARC
  5
574
330
3D0
100
AcDbEntity
  8
TE100N_S__150205
  6
CONTINUOUS
 62
     7
100
AcDbCircle
 10
254.6521321093
 20
94.5592604155
 30
0.0
 40
1.151724240919975
100
AcDbArc
 50
145.5574518532
 51
148.455744221
  0
ARC
  5
575
330
3D0
100
AcDbEntity
  8
TE100N_S__150205
  6
CONTINUOUS
 62
     7
100
AcDbCircle
 10
253.8706698504
 20
100.1577882458
 30
0.0
 40
5.0
100
AcDbArc
 50
267.7066514726
 51
308.575164362
  0
ARC
  5
576
330
3D0
100
AcDbEntity
  8
TE100N_S__150205
  6
CONTINUOUS
 62
     7
100
AcDbCircle
 10
256.5525975334
 20
95.1814099687
 30
0.0
 40
1.152950643870021
100
AcDbArc
 50
67.7922479306
 51
70.6863652148
  0
ARC
  5
577
330
3D0
100
AcDbEntity
  8
TE100N_S__150205
  6
CONTINUOUS
 62
     7
100
AcDbCircle
 10
255.5461531577
 20
96.3770696341
 30
0.0
 40
1.248088076960901
100
AcDbArc
 50
2.8920850776
 51
5.4378478996
  0
ARC
  5
578
330
3D0
100
AcDbEntity
  8
TE100N_S__150205
  6
CONTINUOUS
 62
     7
100
AcDbCircle
 10
252.8046698504
 20
103.4327882458
 30
0.0
 40
8.0
100
AcDbArc
 50
276.3410768229
 51
299.8673929845
  0
ARC
  5
579
330
3D0
100
AcDbEntity
  8
TE100N_S__150205
  6
CONTINUOUS
 62
     7
100
AcDbCircle
 10
256.6906698504
 20
96.2117882458
 30
0.0
 40
0.299999999999997
100
AcDbArc
 50
7.0933440235
 51
70.9426206807
  0
CIRCLE
  5
57A
330
3D0
100
AcDbEntity
  8
TE100N_S__150205
  6
CONTINUOUS
 62
     7
100
AcDbCircle
 10
259.8186698504
 20
92.0847882458
 30
0.0
 40
2.6
  0
CIRCLE
  5
57B
330
3D0
100
AcDbEntity
  8
TE100N_S__150205
  6
CONTINUOUS
 62
     7
100
AcDbCircle
 10
259.8186698504
 20
92.0847882458
 30
0.0
 40
3.5
  0
ARC
  5
57C
330
3D0
100
AcDbEntity
  8
TE100N_S__150205
  6
CONTINUOUS
 62
     7
100
AcDbCircle
 10
263.3186698504
 20
97.3847882458
 30
0.0
 40
0.1000000000000001
100
AcDbArc
 50
270.0
 51
0.0
  0
ARC
  5
57D
330
3D0
100
AcDbEntity
  8
TE100N_S__150205
  6
CONTINUOUS
 62
     7
100
AcDbCircle
 10
261.1186698504
 20
97.3847882458
 30
0.0
 40
0.1000000000000001
100
AcDbArc
 50
180.0
 51
270.0
  0
LINE
  5
57E
330
3D0
100
AcDbEntity
  8
TE100N_S__150205
  6
CONTINUOUS
 62
     7
100
AcDbLine
 10
261.0186698504
 20
97.9147882458
 30
0.0
 11
261.0186698504
 21
97.3847882458
 31
0.0
  0
LINE
  5
57F
330
3D0
100
AcDbEntity
  8
TE100N_S__150205
  6
CONTINUOUS
 62
     7
100
AcDbLine
 10
263.4186698504
 20
97.3847882458
 30
0.0
 11
263.4186698504
 21
97.9147882458
 31
0.0
  0
ARC
  5
580
330
3D0
100
AcDbEntity
  8
TE100N_S__150205
  6
CONTINUOUS
 62
     7
100
AcDbCircle
 10
263.4664650466
 20
95.5737336182
 30
0.0
 40
0.0476839730741365
100
AcDbArc
 50
183.6508444306
 51
223.5535870214
  0
LINE
  5
581
330
3D0
100
AcDbEntity
  8
TE100N_S__150205
  6
CONTINUOUS
 62
     7
100
AcDbLine
 10
263.4186376182
 20
95.5706488158
 30
0.0
 11
263.2686698504
 21
97.2847882458
 31
0.0
  0
LINE
  5
582
330
3D0
100
AcDbEntity
  8
TE100N_S__150205
  6
CONTINUOUS
 62
     7
100
AcDbLine
 10
261.1686698504
 20
97.2847882458
 30
0.0
 11
261.1409104658
 21
96.9674970281
 31
0.0
  0
LINE
  5
583
330
3D0
100
AcDbEntity
  8
TE100N_S__150205
  6
CONTINUOUS
 62
     7
100
AcDbLine
 10
318.0465417766
 20
97.2847882458
 30
0.0
 11
318.8186698504
 21
97.2847882458
 31
0.0
  0
LINE
  5
584
330
3D0
100
AcDbEntity
  8
TE100N_S__150205
  6
CONTINUOUS
 62
     7
100
AcDbLine
 10
317.3907979242
 20
97.2847882458
 30
0.0
 11
316.6186698504
 21
97.2847882458
 31
0.0
  0
LINE
  5
585
330
3D0
100
AcDbEntity
  8
TE100N_S__150205
  6
CONTINUOUS
 62
     7
100
AcDbLine
 10
317.1377223485
 20
97.9147882458
 30
0.0
 11
317.1377223485
 21
97.3847882458
 31
0.0
  0
LINE
  5
586
330
3D0
100
AcDbEntity
  8
TE100N_S__150205
  6
CONTINUOUS
 62
     7
100
AcDbLine
 10
317.7186698504
 20
97.2847882458
 30
0.0
 11
317.3907979242
 21
97.2847882458
 31
0.0
  0
SPLINE
  5
587
330
3D0
100
AcDbEntity
  8
TE100N_S__150205
  6
CONTINUOUS
 62
     7
100
AcDbSpline
210
0.0
220
0.0
230
1.0
 70
     8
 71
     3
 72
    16
 73
    12
 74
     0
 42
0.0000000339078916
 43
0.0000000001
 40
0.0
 40
0.0
 40
0.0
 40
0.0
 40
0.2500000000000005
 40
0.2500000000000005
 40
0.5000000000000006
 40
0.5000000000000006
 40
0.7500000000000006
 40
0.7500000000000006
 40
0.8750000000000003
 40
0.8750000000000003
 40
1.0
 40
1.0
 40
1.0
 40
1.0
 10
317.3907979242063
 20
97.28478824579122
 30
0.0
 10
317.3664238046203
 20
97.28478824579122
 30
0.0
 10
317.3420356388691
 20
97.28555577699778
 30
0.0
 10
317.2932539912677
 20
97.28985406341432
 30
0.0
 10
317.2691181866913
 20
97.29332065567847
 30
0.0
 10
317.2217792415311
 20
97.30507205459506
 30
0.0
 10
317.1981112325846
 20
97.31333505216563
 30
0.0
 10
317.1671845123612
 20
97.33308869013878
 30
0.0
 10
317.1575681298615
 20
97.34099747819393
 30
0.0
 10
317.1427158409517
 20
97.36054737284155
 30
0.0
 10
317.1377223484903
 20
97.37247635293151
 30
0.0
 10
317.1377223484903
 20
97.38478824579121
 30
0.0
  0
LINE
  5
588
330
3D0
100
AcDbEntity
  8
TE100N_S__150205
  6
CONTINUOUS
 62
     7
100
AcDbLine
 10
318.2996173524
 20
97.9147882458
 30
0.0
 11
318.2996173524
 21
97.3847882458
 31
0.0
  0
SPLINE
  5
589
330
3D0
100
AcDbEntity
  8
TE100N_S__150205
  6
CONTINUOUS
 62
     7
100
AcDbSpline
210
0.0
220
0.0
230
1.0
 70
     8
 71
     3
 72
    18
 73
    14
 74
     0
 42
0.0000000339376881
 43
0.0000000001
 40
0.0
 40
0.0
 40
0.0
 40
0.0
 40
0.1250000000000007
 40
0.1250000000000007
 40
0.2500000000000014
 40
0.2500000000000014
 40
0.3750000000000021
 40
0.3750000000000021
 40
0.5000000000000028
 40
0.5000000000000028
 40
0.7500000000000016
 40
0.7500000000000016
 40
1.0
 40
1.0
 40
1.0
 40
1.0
 10
318.2996173523526
 20
97.38478824579121
 30
0.0
 10
318.2996173523526
 20
97.37230728781628
 30
0.0
 10
318.294615374719
 20
97.36047461011631
 30
0.0
 10
318.2795007772731
 20
97.34070378121973
 30
0.0
 10
318.2698608964102
 20
97.33285379163044
 30
0.0
 10
318.249029555041
 20
97.319644015141
 30
0.0
 10
318.2379735186768
 20
97.31441125830149
 30
0.0
 10
318.2151017350652
 20
97.3055736006971
 30
0.0
 10
318.2032434205336
 20
97.301996342916
 30
0.0
 10
318.1676828042272
 20
97.29322437337204
 30
0.0
 10
318.1436706276065
 20
97.28980993392281
 30
0.0
 10
318.0953223182399
 20
97.28556500335951
 30
0.0
 10
318.0709605806663
 20
97.28478824579122
 30
0.0
 10
318.0465417766366
 20
97.28478824579122
 30
0.0
  0
LINE
  5
58A
330
3D0
100
AcDbEntity
  8
TE100N_S__150205
  6
CONTINUOUS
 62
     7
100
AcDbLine
 10
318.0465417766
 20
97.2847882458
 30
0.0
 11
317.7186698504
 21
97.2847882458
 31
0.0
  0
ARC
  5
58B
330
3D0
100
AcDbEntity
  8
TE100N_S__150205
  6
CONTINUOUS
 62
     7
100
AcDbCircle
 10
315.4005079779
 20
92.4262535527
 30
0.0
 40
4.707599243423746
100
AcDbArc
 50
62.5723646125
 51
74.7227838952
  0
ARC
  5
58C
330
3D0
100
AcDbEntity
  8
TE100N_S__150205
  6
CONTINUOUS
 62
     7
100
AcDbCircle
 10
318.0954012339
 20
96.360565736
 30
0.0
 40
0.1073842773616903
100
AcDbArc
 50
180.3714101981
 51
201.8381973544
  0
CIRCLE
  5
58D
330
3D0
100
AcDbEntity
  8
TE100N_S__150205
  6
CONTINUOUS
 62
     7
100
AcDbCircle
 10
315.3186698504
 20
92.0847882458
 30
0.0
 40
5.000000000000001
  0
CIRCLE
  5
58E
330
3D0
100
AcDbEntity
  8
TE100N_S__150205
  6
CONTINUOUS
 62
     7
100
AcDbCircle
 10
315.3186698504
 20
92.0847882458
 30
0.0
 40
4.2
  0
CIRCLE
  5
58F
330
3D0
100
AcDbEntity
  8
TE100N_S__150205
  6
CONTINUOUS
 62
     7
100
AcDbCircle
 10
315.3186698504
 20
92.0847882458
 30
0.0
 40
1.75
  0
CIRCLE
  5
590
330
3D0
100
AcDbEntity
  8
TE100N_S__150205
  6
CONTINUOUS
 62
     7
100
AcDbCircle
 10
315.3186698504
 20
92.0847882458
 30
0.0
 40
2.6
  0
CIRCLE
  5
591
330
3D0
100
AcDbEntity
  8
TE100N_S__150205
  6
CONTINUOUS
 62
     7
100
AcDbCircle
 10
315.3186698504
 20
92.0847882458
 30
0.0
 40
3.5
  0
ARC
  5
592
330
3D0
100
AcDbEntity
  8
TE100N_S__150205
  6
CONTINUOUS
 62
     7
100
AcDbCircle
 10
318.8186698504
 20
97.3847882458
 30
0.0
 40
0.1000000000000001
100
AcDbArc
 50
270.0
 51
0.0
  0
ARC
  5
593
330
3D0
100
AcDbEntity
  8
TE100N_S__150205
  6
CONTINUOUS
 62
     7
100
AcDbCircle
 10
316.6186698504
 20
97.3847882458
 30
0.0
 40
0.1000000000000001
100
AcDbArc
 50
180.0
 51
270.0
  0
LINE
  5
594
330
3D0
100
AcDbEntity
  8
TE100N_S__150205
  6
CONTINUOUS
 62
     7
100
AcDbLine
 10
316.5186698504
 20
97.9147882458
 30
0.0
 11
316.5186698504
 21
97.3847882458
 31
0.0
  0
LINE
  5
595
330
3D0
100
AcDbEntity
  8
TE100N_S__150205
  6
CONTINUOUS
 62
     7
100
AcDbLine
 10
318.9186698504
 20
97.3847882458
 30
0.0
 11
318.9186698504
 21
97.9147882458
 31
0.0
  0
ARC
  5
596
330
3D0
100
AcDbEntity
  8
TE100N_S__150205
  6
CONTINUOUS
 62
     7
100
AcDbCircle
 10
318.9664650466
 20
95.5737336182
 30
0.0
 40
0.0476839730741167
100
AcDbArc
 50
183.6508444306
 51
223.5535870214
  0
LINE
  5
597
330
3D0
100
AcDbEntity
  8
TE100N_S__150205
  6
CONTINUOUS
 62
     7
100
AcDbLine
 10
318.9186376182
 20
95.5706488158
 30
0.0
 11
318.7686698504
 21
97.2847882458
 31
0.0
  0
LINE
  5
598
330
3D0
100
AcDbEntity
  8
TE100N_S__150205
  6
CONTINUOUS
 62
     7
100
AcDbLine
 10
316.6686698504
 20
97.2847882458
 30
0.0
 11
316.6409104658
 21
96.9674970281
 31
0.0
  0
LINE
  5
59A
330
3D0
100
AcDbEntity
  8
ﾐﾗｰベースサイドカバー1608
  6
CONTINUOUS
 62
     7
100
AcDbLine
 10
329.3686698504
 20
97.9147882458
 30
0.0
 11
329.3686698504
 21
102.5482705513
 31
0.0
  0
LINE
  5
59B
330
3D0
100
AcDbEntity
  8
ﾐﾗｰベースサイドカバー1608
  6
CONTINUOUS
 62
     7
100
AcDbLine
 10
328.2634227556
 20
102.6172139859
 30
0.0
 11
329.0086698504
 21
102.5911893839
 31
0.0
  0
LINE
  5
59C
330
3D0
100
AcDbEntity
  8
ﾐﾗｰベースサイドカバー1608
  6
CONTINUOUS
 62
     7
100
AcDbLine
 10
329.0086698504
 20
102.6007445012
 30
0.0
 11
329.0086698504
 21
102.5911893839
 31
0.0
  0
LINE
  5
59D
330
3D0
100
AcDbEntity
  8
ﾐﾗｰベースサイドカバー1608
  6
CONTINUOUS
 62
     7
100
AcDbLine
 10
328.3886698504
 20
102.5482705513
 30
0.0
 11
328.2610151978
 21
102.5482705513
 31
0.0
  0
LINE
  5
59E
330
3D0
100
AcDbEntity
  8
ﾐﾗｰベースサイドカバー1608
  6
CONTINUOUS
 62
     7
100
AcDbLine
 10
328.2610151978
 20
102.5482705513
 30
0.0
 11
328.2637560212
 21
102.6267574653
 31
0.0
  0
LINE
  5
59F
330
3D0
100
AcDbEntity
  8
ﾐﾗｰベースサイドカバー1608
  6
CONTINUOUS
 62
     7
100
AcDbLine
 10
267.4121775246
 20
104.9118389383
 30
0.0
 11
289.5141967687
 21
104.140019419
 31
0.0
  0
LINE
  5
5A0
330
3D0
100
AcDbEntity
  8
ﾐﾗｰベースサイドカバー1608
  6
CONTINUOUS
 62
     7
100
AcDbLine
 10
292.0297956286
 20
104.0521727711
 30
0.0
 11
328.2693399407
 21
102.7866599977
 31
0.0
  0
LINE
  5
5A1
330
3D0
100
AcDbEntity
  8
ﾐﾗｰベースサイドカバー1608
  6
CONTINUOUS
 62
     7
100
AcDbLine
 10
328.2693399407
 20
102.7866599977
 30
0.0
 11
328.2637560212
 21
102.6267574653
 31
0.0
  0
LINE
  5
5A2
330
3D0
100
AcDbEntity
  8
ﾐﾗｰベースサイドカバー1608
  6
CONTINUOUS
 62
     7
100
AcDbLine
 10
328.3886698504
 20
102.5482705513
 30
0.0
 11
329.3686698504
 21
102.5482705513
 31
0.0
  0
LINE
  5
5A3
330
3D0
100
AcDbEntity
  8
ﾐﾗｰベースサイドカバー1608
  6
CONTINUOUS
 62
     7
100
AcDbLine
 10
329.3686698504
 20
97.9147882458
 30
0.0
 11
328.3886698504
 21
97.9147882458
 31
0.0
  0
LINE
  5
5A4
330
3D0
100
AcDbEntity
  8
ﾐﾗｰベースサイドカバー1608
  6
CONTINUOUS
 62
     7
100
AcDbLine
 10
329.3700615783
 20
102.588124424
 30
0.0
 11
329.3756454978
 21
102.7480269563
 31
0.0
  0
LINE
  5
5A5
330
3D0
100
AcDbEntity
  8
ﾐﾗｰベースサイドカバー1608
  6
CONTINUOUS
 62
     7
100
AcDbLine
 10
328.5761328362
 20
102.7759465537
 30
0.0
 11
328.2693399407
 21
102.7866599977
 31
0.0
  0
LINE
  5
5A6
330
3D0
100
AcDbEntity
  8
ﾐﾗｰベースサイドカバー1608
  6
CONTINUOUS
 62
     7
100
AcDbLine
 10
329.3756454978
 20
102.7480269563
 30
0.0
 11
328.5761328362
 21
102.7759465537
 31
0.0
  0
LINE
  5
5A7
330
3D0
100
AcDbEntity
  8
ﾐﾗｰベースサイドカバー1608
  6
CONTINUOUS
 62
     7
100
AcDbLine
 10
328.5705489167
 20
102.6160440214
 30
0.0
 11
328.2637560212
 21
102.6267574653
 31
0.0
  0
LINE
  5
5A8
330
3D0
100
AcDbEntity
  8
ﾐﾗｰベースサイドカバー1608
  6
CONTINUOUS
 62
     7
100
AcDbLine
 10
328.5705489167
 20
102.6160440214
 30
0.0
 11
329.3700615783
 21
102.588124424
 31
0.0
  0
LINE
  5
5A9
330
3D0
100
AcDbEntity
  8
ﾐﾗｰベースサイドカバー1608
  6
CONTINUOUS
 62
     7
100
AcDbLine
 10
329.0086698504
 20
102.5482705513
 30
0.0
 11
329.0086698504
 21
102.5911893839
 31
0.0
  0
LINE
  5
5AA
330
3D0
100
AcDbEntity
  8
ﾐﾗｰベースサイドカバー1608
  6
CONTINUOUS
 62
     7
100
AcDbLine
 10
264.958586355
 20
97.9147882458
 30
0.0
 11
328.3886698504
 21
97.9147882458
 31
0.0
  0
ARC
  5
5AB
330
3D0
100
AcDbEntity
  8
ﾐﾗｰベースサイドカバー1608
  6
CONTINUOUS
 62
     7
100
AcDbCircle
 10
264.958586355
 20
98.1147882458
 30
0.0
 40
0.1999999999999988
100
AcDbArc
 50
212.3301023541
 51
270.0
  0
LINE
  5
5AD
330
3D0
100
AcDbEntity
  8
補強金具150407_ﾃﾞﾌｫﾙ
  6
CONTINUOUS
 62
     7
100
AcDbLine
 10
275.3550834874
 20
125.3992785251
 30
0.0
 11
275.2148596359
 21
125.4525445695
 31
0.0
  0
LINE
  5
5AE
330
3D0
100
AcDbEntity
  8
補強金具150407_ﾃﾞﾌｫﾙ
  6
CONTINUOUS
 62
     7
100
AcDbLine
 10
292.0297956286
 20
104.0521727711
 30
0.0
 11
289.5141967687
 21
104.140019419
 31
0.0
  0
LINE
  5
5AF
330
3D0
100
AcDbEntity
  8
補強金具150407_ﾃﾞﾌｫﾙ
  6
CONTINUOUS
 62
     7
100
AcDbLine
 10
289.5141967687
 20
104.140019419
 30
0.0
 11
289.5222236529
 21
104.3698793092
 31
0.0
  0
LINE
  5
5B0
330
3D0
100
AcDbEntity
  8
補強金具150407_ﾃﾞﾌｫﾙ
  6
CONTINUOUS
 62
     7
100
AcDbLine
 10
289.5222236529
 20
104.3698793092
 30
0.0
 11
289.3223454875
 21
104.3768592086
 31
0.0
  0
LINE
  5
5B1
330
3D0
100
AcDbEntity
  8
補強金具150407_ﾃﾞﾌｫﾙ
  6
CONTINUOUS
 62
     7
100
AcDbLine
 10
270.5611394949
 20
112.7791318938
 30
0.0
 11
275.8305693228
 21
104.848002414
 31
0.0
  0
LINE
  5
5B2
330
3D0
100
AcDbEntity
  8
補強金具150407_ﾃﾞﾌｫﾙ
  6
CONTINUOUS
 62
     7
100
AcDbLine
 10
289.3143186033
 20
104.1469993183
 30
0.0
 11
289.3223454875
 21
104.3768592086
 31
0.0
  0
LINE
  5
5B3
330
3D0
100
AcDbEntity
  8
補強金具150407_ﾃﾞﾌｫﾙ
  6
CONTINUOUS
 62
     7
100
AcDbLine
 10
275.8305693228
 20
104.848002414
 30
0.0
 11
275.8225424385
 21
104.6181425238
 31
0.0
  0
LINE
  5
5B4
330
3D0
100
AcDbEntity
  8
補強金具150407_ﾃﾞﾌｫﾙ
  6
CONTINUOUS
 62
     7
100
AcDbLine
 10
276.2965180394
 20
128.1482781565
 30
0.0
 11
276.2194128607
 21
128.0970495983
 31
0.0
  0
LINE
  5
5B5
330
3D0
100
AcDbEntity
  8
補強金具150407_ﾃﾞﾌｫﾙ
  6
CONTINUOUS
 62
     7
100
AcDbLine
 10
292.0297956286
 20
104.0521727711
 30
0.0
 11
292.2213675139
 21
104.1794528274
 31
0.0
  0
LINE
  5
5B6
330
3D0
100
AcDbEntity
  8
補強金具150407_ﾃﾞﾌｫﾙ
  6
CONTINUOUS
 62
     7
100
AcDbLine
 10
292.2213675139
 20
104.1794528274
 30
0.0
 11
276.2965180394
 21
128.1482781565
 31
0.0
  0
LINE
  5
5B7
330
3D0
100
AcDbEntity
  8
補強金具150407_ﾃﾞﾌｫﾙ
  6
CONTINUOUS
 62
     7
100
AcDbLine
 10
270.4209156434
 20
112.8323979382
 30
0.0
 11
270.5611394949
 21
112.7791318938
 31
0.0
  0
ENDBLK
  5
5B9
330
3D0
100
AcDbEntity
  8
0
100
AcDbBlockEnd
  0
BLOCK
  5
5E5
330
5BA
100
AcDbEntity
  8
0
100
AcDbBlockBegin
  2
GDIMGGROUP
 70
     0
 10
0.0
 20
0.0
 30
0.0
  3
GDIMGGROUP
  1

  0
POLYLINE
  5
5BC
330
5BA
100
AcDbEntity
  8
DEFAULT
  6
CONTINUOUS
 62
   136
100
AcDb2dPolyline
 66
     1
 10
0.0
 20
0.0
 30
0.0
  0
VERTEX
  5
60B
330
5BC
100
AcDbEntity
  8
DEFAULT
  6
CONTINUOUS
 62
   136
100
AcDbVertex
100
AcDb2dVertex
 10
84.8593640481
 20
56.9204367877
 30
0.0
  0
VERTEX
  5
60C
330
5BC
100
AcDbEntity
  8
DEFAULT
  6
CONTINUOUS
 62
   136
100
AcDbVertex
100
AcDb2dVertex
 10
81.6593641289
 20
56.3871034678
 30
0.0
  0
VERTEX
  5
60D
330
5BC
100
AcDbEntity
  8
DEFAULT
  6
CONTINUOUS
 62
   136
100
AcDbVertex
100
AcDb2dVertex
 10
84.8593640481
 20
55.853770148
 30
0.0
  0
SEQEND
  5
60E
330
5BC
100
AcDbEntity
  8
DEFAULT
  6
CONTINUOUS
 62
   136
  0
POLYLINE
  5
5BD
330
5BA
100
AcDbEntity
  8
DEFAULT
  6
CONTINUOUS
 62
   136
100
AcDb2dPolyline
 66
     1
 10
0.0
 20
0.0
 30
0.0
  0
VERTEX
  5
60F
330
5BD
100
AcDbEntity
  8
DEFAULT
  6
CONTINUOUS
 62
   136
100
AcDbVertex
100
AcDb2dVertex
 10
167.5993621689
 20
56.9204367877
 30
0.0
  0
VERTEX
  5
610
330
5BD
100
AcDbEntity
  8
DEFAULT
  6
CONTINUOUS
 62
   136
100
AcDbVertex
100
AcDb2dVertex
 10
170.799362088
 20
56.3871034678
 30
0.0
  0
VERTEX
  5
611
330
5BD
100
AcDbEntity
  8
DEFAULT
  6
CONTINUOUS
 62
   136
100
AcDbVertex
100
AcDb2dVertex
 10
167.5993621689
 20
55.853770148
 30
0.0
  0
SEQEND
  5
612
330
5BD
100
AcDbEntity
  8
DEFAULT
  6
CONTINUOUS
 62
   136
  0
LINE
  5
5BE
330
5BA
100
AcDbEntity
  8
DEFAULT
  6
CONTINUOUS
 62
   136
100
AcDbLine
 10
81.6593641289
 20
96.6347882781
 30
0.0
 11
81.6593641289
 21
54.7871035082
 31
0.0
  0
LINE
  5
5BF
330
5BA
100
AcDbEntity
  8
DEFAULT
  6
CONTINUOUS
 62
   136
100
AcDbLine
 10
170.7993641289
 20
96.6347882781
 30
0.0
 11
170.7993641289
 21
54.7871035082
 31
0.0
  0
LINE
  5
5C0
330
5BA
100
AcDbEntity
  8
DEFAULT
  6
CONTINUOUS
 62
   136
100
AcDbLine
 10
81.6593641289
 20
56.3871034678
 30
0.0
 11
170.799362088
 21
56.3871034678
 31
0.0
  0
TEXT
  5
5E4
330
5BA
100
AcDbEntity
  8
DEFAULT
  6
CONTINUOUS
 62
   136
100
AcDbText
 10
121.0586314012
 20
57.1871034678
 30
0.0
 40
3.2
  1
891.4
  7
SEACAD_SEANSI_TTF
 11
121.0586314012
 21
60.3871034678
 31
0.0
100
AcDbText
 73
     3
  0
ENDBLK
  5
5E6
330
5BA
100
AcDbEntity
  8
0
100
AcDbBlockEnd
  0
BLOCK
  5
5EF
330
5E7
100
AcDbEntity
  8
0
100
AcDbBlockBegin
  2
GDIMGGROUP1
 70
     0
 10
0.0
 20
0.0
 30
0.0
  3
GDIMGGROUP1
  1

  0
POLYLINE
  5
5E9
330
5E7
100
AcDbEntity
  8
DEFAULT
  6
CONTINUOUS
 62
   136
100
AcDb2dPolyline
 66
     1
 10
0.0
 20
0.0
 30
0.0
  0
VERTEX
  5
613
330
5E9
100
AcDbEntity
  8
DEFAULT
  6
CONTINUOUS
 62
   136
100
AcDbVertex
100
AcDb2dVertex
 10
326.1686699313
 20
58.2928039313
 30
0.0
  0
VERTEX
  5
614
330
5E9
100
AcDbEntity
  8
DEFAULT
  6
CONTINUOUS
 62
   136
100
AcDbVertex
100
AcDb2dVertex
 10
329.3686698504
 20
57.7594706114
 30
0.0
  0
VERTEX
  5
615
330
5E9
100
AcDbEntity
  8
DEFAULT
  6
CONTINUOUS
 62
   136
100
AcDbVertex
100
AcDb2dVertex
 10
326.1686699313
 20
57.2261372916
 30
0.0
  0
SEQEND
  5
616
330
5E9
100
AcDbEntity
  8
DEFAULT
  6
CONTINUOUS
 62
   136
  0
POLYLINE
  5
5EA
330
5E7
100
AcDbEntity
  8
DEFAULT
  6
CONTINUOUS
 62
   136
100
AcDb2dPolyline
 66
     1
 10
0.0
 20
0.0
 30
0.0
  0
VERTEX
  5
617
330
5EA
100
AcDbEntity
  8
DEFAULT
  6
CONTINUOUS
 62
   136
100
AcDbVertex
100
AcDb2dVertex
 10
251.3674591516
 20
58.2928039313
 30
0.0
  0
VERTEX
  5
618
330
5EA
100
AcDbEntity
  8
DEFAULT
  6
CONTINUOUS
 62
   136
100
AcDbVertex
100
AcDb2dVertex
 10
248.1674592324
 20
57.7594706114
 30
0.0
  0
VERTEX
  5
619
330
5EA
100
AcDbEntity
  8
DEFAULT
  6
CONTINUOUS
 62
   136
100
AcDbVertex
100
AcDb2dVertex
 10
251.3674591516
 20
57.2261372916
 30
0.0
  0
SEQEND
  5
61A
330
5EA
100
AcDbEntity
  8
DEFAULT
  6
CONTINUOUS
 62
   136
  0
LINE
  5
5EB
330
5E7
100
AcDbEntity
  8
DEFAULT
  6
CONTINUOUS
 62
   136
100
AcDbLine
 10
329.3686698504
 20
96.6347882781
 30
0.0
 11
329.3686698504
 21
56.1594706519
 31
0.0
  0
LINE
  5
5EC
330
5E7
100
AcDbEntity
  8
DEFAULT
  6
CONTINUOUS
 62
   136
100
AcDbLine
 10
248.1674600666
 20
88.453585102
 30
0.0
 11
248.1674600666
 21
56.1594706519
 31
0.0
  0
LINE
  5
5ED
330
5E7
100
AcDbEntity
  8
DEFAULT
  6
CONTINUOUS
 62
   136
100
AcDbLine
 10
329.3686698504
 20
57.7594706114
 30
0.0
 11
248.1674592324
 21
57.7594706114
 31
0.0
  0
TEXT
  5
5EE
330
5E7
100
AcDbEntity
  8
DEFAULT
  6
CONTINUOUS
 62
   136
100
AcDbText
 10
285.2558694195
 20
58.5594706114
 30
0.0
 40
3.2
  1
812
  7
SEACAD_SEANSI_TTF
 11
285.2558694195
 21
61.7594706114
 31
0.0
100
AcDbText
 73
     3
  0
ENDBLK
  5
5F0
330
5E7
100
AcDbEntity
  8
0
100
AcDbBlockEnd
  0
BLOCK
  5
5F9
330
5F1
100
AcDbEntity
  8
0
100
AcDbBlockBegin
  2
GDIMGGROUP2
 70
     0
 10
0.0
 20
0.0
 30
0.0
  3
GDIMGGROUP2
  1

  0
POLYLINE
  5
5F3
330
5F1
100
AcDbEntity
  8
DEFAULT
  6
CONTINUOUS
 62
   136
100
AcDb2dPolyline
 66
     1
 10
0.0
 20
0.0
 30
0.0
  0
VERTEX
  5
61B
330
5F3
100
AcDbEntity
  8
DEFAULT
  6
CONTINUOUS
 62
   136
100
AcDbVertex
100
AcDb2dVertex
 10
354.3754737709
 20
90.284788165
 30
0.0
  0
VERTEX
  5
61C
330
5F3
100
AcDbEntity
  8
DEFAULT
  6
CONTINUOUS
 62
   136
100
AcDbVertex
100
AcDb2dVertex
 10
354.9088070907
 20
87.0847882458
 30
0.0
  0
VERTEX
  5
61D
330
5F3
100
AcDbEntity
  8
DEFAULT
  6
CONTINUOUS
 62
   136
100
AcDbVertex
100
AcDb2dVertex
 10
355.4421404106
 20
90.284788165
 30
0.0
  0
SEQEND
  5
61E
330
5F3
100
AcDbEntity
  8
DEFAULT
  6
CONTINUOUS
 62
   136
  0
POLYLINE
  5
5F4
330
5F1
100
AcDbEntity
  8
DEFAULT
  6
CONTINUOUS
 62
   136
100
AcDb2dPolyline
 66
     1
 10
0.0
 20
0.0
 30
0.0
  0
VERTEX
  5
61F
330
5F4
100
AcDbEntity
  8
DEFAULT
  6
CONTINUOUS
 62
   136
100
AcDbVertex
100
AcDb2dVertex
 10
354.3754737709
 20
234.3847878498
 30
0.0
  0
VERTEX
  5
620
330
5F4
100
AcDbEntity
  8
DEFAULT
  6
CONTINUOUS
 62
   136
100
AcDbVertex
100
AcDb2dVertex
 10
354.9088070907
 20
237.584787769
 30
0.0
  0
VERTEX
  5
621
330
5F4
100
AcDbEntity
  8
DEFAULT
  6
CONTINUOUS
 62
   136
100
AcDbVertex
100
AcDb2dVertex
 10
355.4421404106
 20
234.3847878498
 30
0.0
  0
SEQEND
  5
622
330
5F4
100
AcDbEntity
  8
DEFAULT
  6
CONTINUOUS
 62
   136
  0
LINE
  5
5F5
330
5F1
100
AcDbEntity
  8
DEFAULT
  6
CONTINUOUS
 62
   136
100
AcDbLine
 10
330.6736698181
 20
87.0847882458
 30
0.0
 11
356.5088070503
 21
87.0847882458
 31
0.0
  0
LINE
  5
5F6
330
5F1
100
AcDbEntity
  8
DEFAULT
  6
CONTINUOUS
 62
   136
100
AcDbLine
 10
315.3426027222
 20
237.5847882458
 30
0.0
 11
356.5088070503
 21
237.5847882458
 31
0.0
  0
LINE
  5
5F7
330
5F1
100
AcDbEntity
  8
DEFAULT
  6
CONTINUOUS
 62
   136
100
AcDbLine
 10
354.9088070907
 20
87.0847882458
 30
0.0
 11
354.9088070907
 21
237.584787769
 31
0.0
  0
TEXT
  5
5F8
330
5F1
100
AcDbEntity
  8
DEFAULT
  6
CONTINUOUS
 62
   136
100
AcDbText
 10
354.1088070907
 20
157.6518611781
 30
0.0
 40
3.2
  1
1505
 50
90.0
  7
SEACAD_SEANSI_TTF
 11
350.9088070907
 21
157.6518611781
 31
0.0
100
AcDbText
 73
     3
  0
ENDBLK
  5
5FA
330
5F1
100
AcDbEntity
  8
0
100
AcDbBlockEnd
  0
BLOCK
  5
603
330
5FB
100
AcDbEntity
  8
0
100
AcDbBlockBegin
  2
GDIMGGROUP3
 70
     0
 10
0.0
 20
0.0
 30
0.0
  3
GDIMGGROUP3
  1

  0
POLYLINE
  5
5FD
330
5FB
100
AcDbEntity
  8
DEFAULT
  6
CONTINUOUS
 62
   136
100
AcDb2dPolyline
 66
     1
 10
0.0
 20
0.0
 30
0.0
  0
VERTEX
  5
623
330
5FD
100
AcDbEntity
  8
DEFAULT
  6
CONTINUOUS
 62
   136
100
AcDbVertex
100
AcDb2dVertex
 10
251.3674599858
 20
263.0136842049
 30
0.0
  0
VERTEX
  5
624
330
5FD
100
AcDbEntity
  8
DEFAULT
  6
CONTINUOUS
 62
   136
100
AcDbVertex
100
AcDb2dVertex
 10
248.1674600666
 20
263.5470175247
 30
0.0
  0
VERTEX
  5
625
330
5FD
100
AcDbEntity
  8
DEFAULT
  6
CONTINUOUS
 62
   136
100
AcDbVertex
100
AcDb2dVertex
 10
251.3674599858
 20
264.0803508446
 30
0.0
  0
SEQEND
  5
626
330
5FD
100
AcDbEntity
  8
DEFAULT
  6
CONTINUOUS
 62
   136
  0
POLYLINE
  5
5FE
330
5FB
100
AcDbEntity
  8
DEFAULT
  6
CONTINUOUS
 62
   136
100
AcDb2dPolyline
 66
     1
 10
0.0
 20
0.0
 30
0.0
  0
VERTEX
  5
627
330
5FE
100
AcDbEntity
  8
DEFAULT
  6
CONTINUOUS
 62
   136
100
AcDbVertex
100
AcDb2dVertex
 10
284.8794678965
 20
263.0136842049
 30
0.0
  0
VERTEX
  5
628
330
5FE
100
AcDbEntity
  8
DEFAULT
  6
CONTINUOUS
 62
   136
100
AcDbVertex
100
AcDb2dVertex
 10
288.0794678157
 20
263.5470175247
 30
0.0
  0
VERTEX
  5
629
330
5FE
100
AcDbEntity
  8
DEFAULT
  6
CONTINUOUS
 62
   136
100
AcDbVertex
100
AcDb2dVertex
 10
284.8794678965
 20
264.0803508446
 30
0.0
  0
SEQEND
  5
62A
330
5FE
100
AcDbEntity
  8
DEFAULT
  6
CONTINUOUS
 62
   136
  0
LINE
  5
5FF
330
5FB
100
AcDbEntity
  8
DEFAULT
  6
CONTINUOUS
 62
   136
100
AcDbLine
 10
248.1674600666
 20
95.5994960915
 30
0.0
 11
248.1674600666
 21
265.1470174843
 31
0.0
  0
LINE
  5
600
330
5FB
100
AcDbEntity
  8
DEFAULT
  6
CONTINUOUS
 62
   136
100
AcDbLine
 10
288.0794667954
 20
250.3370644832
 30
0.0
 11
288.0794667954
 21
265.1470174843
 31
0.0
  0
LINE
  5
601
330
5FB
100
AcDbEntity
  8
DEFAULT
  6
CONTINUOUS
 62
   136
100
AcDbLine
 10
248.1674600666
 20
263.5470175247
 30
0.0
 11
288.0794678157
 21
263.5470175247
 31
0.0
  0
TEXT
  5
602
330
5FB
100
AcDbEntity
  8
DEFAULT
  6
CONTINUOUS
 62
   136
100
AcDbText
 10
262.9527322338
 20
264.3470175247
 30
0.0
 40
3.2
  1
399.1
  7
SEACAD_SEANSI_TTF
 11
262.9527322338
 21
267.5470175247
 31
0.0
100
AcDbText
 73
     3
  0
ENDBLK
  5
604
330
5FB
100
AcDbEntity
  8
0
100
AcDbBlockEnd
  0
ENDSEC
  0
SECTION
  2
ENTITIES
  0
INSERT
  5
3D
330
1F
100
AcDbEntity
  8
DEFAULT
100
AcDbBlockReference
  2
SE
 10
0.0
 20
0.0
 30
0.0
  0
INSERT
  5
3D1
330
1F
100
AcDbEntity
  8
DEFAULT
100
AcDbBlockReference
  2
SE1
 10
0.0
 20
0.0
 30
0.0
  0
INSERT
  5
5BB
330
1F
100
AcDbEntity
  8
DEFAULT
100
AcDbBlockReference
  2
GDIMGGROUP
 10
0.0
 20
0.0
 30
0.0
  0
INSERT
  5
5E8
330
1F
100
AcDbEntity
  8
DEFAULT
100
AcDbBlockReference
  2
GDIMGGROUP1
 10
0.0
 20
0.0
 30
0.0
  0
INSERT
  5
5F2
330
1F
100
AcDbEntity
  8
DEFAULT
100
AcDbBlockReference
  2
GDIMGGROUP2
 10
0.0
 20
0.0
 30
0.0
  0
INSERT
  5
5FC
330
1F
100
AcDbEntity
  8
DEFAULT
100
AcDbBlockReference
  2
GDIMGGROUP3
 10
0.0
 20
0.0
 30
0.0
  0
ENDSEC
  0
SECTION
  2
OBJECTS
  0
DICTIONARY
  5
C
330
0
100
AcDbDictionary
  3
ACAD_GROUP
350
D
  3
ACAD_LAYOUT
350
1A
  3
ACAD_MLEADERSTYLE
350
607
  3
ACAD_MLINESTYLE
350
17
  3
ACAD_PLOTSETTINGS
350
19
  3
ACAD_SCALELIST
350
5C1
  3
ACAD_VISUALSTYLE
350
2A
  3
ACDBVARIABLEDICTIONARY
350
605
1001
ACAD
1000
TREAT_AS_HARD
1070
     0
  0
DICTIONARY
  5
D
102
{ACAD_REACTORS
330
C
102
}
330
C
100
AcDbDictionary
1001
ACAD
1000
TREAT_AS_HARD
1070
     0
  0
DICTIONARY
  5
1A
102
{ACAD_REACTORS
330
C
102
}
330
C
100
AcDbDictionary
1001
ACAD
1000
TREAT_AS_HARD
1070
     0
  0
DICTIONARY
  5
607
102
{ACAD_REACTORS
330
C
102
}
330
C
100
AcDbDictionary
1001
ACAD
1000
TREAT_AS_HARD
1070
     0
  0
DICTIONARY
  5
17
102
{ACAD_REACTORS
330
C
102
}
330
C
100
AcDbDictionary
  3
STANDARD
350
18
1001
ACAD
1000
TREAT_AS_HARD
1070
     0
  0
DICTIONARY
  5
19
102
{ACAD_REACTORS
330
C
102
}
330
C
100
AcDbDictionary
1001
ACAD
1000
TREAT_AS_HARD
1070
     0
  0
DICTIONARY
  5
5C1
102
{ACAD_REACTORS
330
C
102
}
330
C
100
AcDbDictionary
  3
A0
350
5C2
  3
A1
350
5C3
  3
A2
350
5C4
  3
A3
350
5C5
  3
A4
350
5C6
  3
A5
350
5C7
  3
A6
350
5C8
  3
A7
350
5C9
  3
A8
350
5CA
  3
A9
350
5CB
  3
B0
350
5CC
  3
B1
350
5CD
  3
B2
350
5CE
  3
B3
350
5CF
  3
B4
350
5D0
  3
B5
350
5D1
  3
B6
350
5D2
  3
B7
350
5D3
  3
B8
350
5D4
  3
B9
350
5D5
  3
C0
350
5D6
  3
C1
350
5D7
  3
C2
350
5D8
  3
C3
350
5D9
  3
C4
350
5DA
  3
C5
350
5DB
  3
C6
350
5DC
  3
C7
350
5DD
  3
C8
350
5DE
  3
C9
350
5DF
  3
D0
350
5E0
  3
D1
350
5E1
  3
D2
350
5E2
1001
ACAD
1000
TREAT_AS_HARD
1070
     0
  0
DICTIONARY
  5
2A
102
{ACAD_REACTORS
330
C
102
}
330
C
100
AcDbDictionary
  3
2DWIREFRAME
350
2F
  3
3D_HIDDEN
350
31
  3
3DWIREFRAME
350
30
  3
BASIC
350
32
  3
BRIGHTEN
350
36
  3
COLORCHANGE
350
3A
  3
CONCEPTUAL
350
34
  3
DIM
350
35
  3
FACEPATTERN
350
39
  3
FLAT
350
2B
  3
FLATWITHEDGES
350
2C
  3
GOURAUD
350
2D
  3
GOURAUDWITHEDGES
350
2E
  3
LINEPATTERN
350
38
  3
REALISTIC
350
33
  3
THICKEN
350
37
1001
ACAD
1000
TREAT_AS_HARD
1070
     0
  0
DICTIONARY
  5
605
102
{ACAD_REACTORS
330
C
102
}
330
C
100
AcDbDictionary
  3
CANNOSCALE
350
60A
  3
PSOLHEIGHT
350
609
  3
PSOLWIDTH
350
608
1001
ACAD
1000
TREAT_AS_HARD
1070
     0
  0
MLINESTYLE
  5
18
102
{ACAD_REACTORS
330
17
102
}
330
17
100
AcDbMlineStyle
  2
Standard
 70
     0
  3

 62
   256
 51
90.0
 52
90.0
 71
     2
 49
0.5
 62
   256
  6
BYLAYER
 49
-0.5
 62
   256
  6
BYLAYER
  0
ACAD_PROXY_OBJECT
  5
5C2
102
{ACAD_REACTORS
330
5C1
102
}
330
5C1
100
AcDbZombieObject
 90
      499
 91
      502
 93
       41
310
903313A31580
  0
ACAD_PROXY_OBJECT
  5
5C3
102
{ACAD_REACTORS
330
5C1
102
}
330
5C1
100
AcDbZombieObject
 90
      499
 91
      502
 93
      105
310
903313A324000000000000004000
  0
ACAD_PROXY_OBJECT
  5
5C4
102
{ACAD_REACTORS
330
5C1
102
}
330
5C1
100
AcDbZombieObject
 90
      499
 91
      502
 93
      105
310
903313A344000000000000104000
  0
ACAD_PROXY_OBJECT
  5
5C5
102
{ACAD_REACTORS
330
5C1
102
}
330
5C1
100
AcDbZombieObject
 90
      499
 91
      502
 93
      105
310
903313A354000000000000144000
  0
ACAD_PROXY_OBJECT
  5
5C6
102
{ACAD_REACTORS
330
5C1
102
}
330
5C1
100
AcDbZombieObject
 90
      499
 91
      502
 93
      105
310
903313A384000000000000204000
  0
ACAD_PROXY_OBJECT
  5
5C7
102
{ACAD_REACTORS
330
5C1
102
}
330
5C1
100
AcDbZombieObject
 90
      499
 91
      502
 93
      113
310
904313A31304000000000000244000
  0
ACAD_PROXY_OBJECT
  5
5C8
102
{ACAD_REACTORS
330
5C1
102
}
330
5C1
100
AcDbZombieObject
 90
      499
 91
      502
 93
      113
310
904313A31364000000000000304000
  0
ACAD_PROXY_OBJECT
  5
5C9
102
{ACAD_REACTORS
330
5C1
102
}
330
5C1
100
AcDbZombieObject
 90
      499
 91
      502
 93
      113
310
904313A32304000000000000344000
  0
ACAD_PROXY_OBJECT
  5
5CA
102
{ACAD_REACTORS
330
5C1
102
}
330
5C1
100
AcDbZombieObject
 90
      499
 91
      502
 93
      113
310
904313A333040000000000003E4000
  0
ACAD_PROXY_OBJECT
  5
5CB
102
{ACAD_REACTORS
330
5C1
102
}
330
5C1
100
AcDbZombieObject
 90
      499
 91
      502
 93
      113
310
904313A34304000000000000444000
  0
ACAD_PROXY_OBJECT
  5
5CC
102
{ACAD_REACTORS
330
5C1
102
}
330
5C1
100
AcDbZombieObject
 90
      499
 91
      502
 93
      113
310
904313A35304000000000000494000
  0
ACAD_PROXY_OBJECT
  5
5CD
102
{ACAD_REACTORS
330
5C1
102
}
330
5C1
100
AcDbZombieObject
 90
      499
 91
      502
 93
      121
310
905313A3130304000000000000594000
  0
ACAD_PROXY_OBJECT
  5
5CE
102
{ACAD_REACTORS
330
5C1
102
}
330
5C1
100
AcDbZombieObject
 90
      499
 91
      502
 93
      105
310
903323A310000000000000010100
  0
ACAD_PROXY_OBJECT
  5
5CF
102
{ACAD_REACTORS
330
5C1
102
}
330
5C1
100
AcDbZombieObject
 90
      499
 91
      502
 93
      105
310
903343A310000000000000410100
  0
ACAD_PROXY_OBJECT
  5
5D0
102
{ACAD_REACTORS
330
5C1
102
}
330
5C1
100
AcDbZombieObject
 90
      499
 91
      502
 93
      105
310
903383A310000000000000810100
  0
ACAD_PROXY_OBJECT
  5
5D1
102
{ACAD_REACTORS
330
5C1
102
}
330
5C1
100
AcDbZombieObject
 90
      499
 91
      502
 93
      113
310
90431303A310000000000000910100
  0
ACAD_PROXY_OBJECT
  5
5D2
102
{ACAD_REACTORS
330
5C1
102
}
330
5C1
100
AcDbZombieObject
 90
      499
 91
      502
 93
      121
310
9053130303A310000000000001650100
  0
ACAD_PROXY_OBJECT
  5
5D3
102
{ACAD_REACTORS
330
5C1
102
}
330
5C1
100
AcDbZombieObject
 90
      499
 91
      502
 93
      257
310
90E312F31323822203D2031272D3022000000000000200FC000000000000284000
  0
ACAD_PROXY_OBJECT
  5
5D4
102
{ACAD_REACTORS
330
5C1
102
}
330
5C1
100
AcDbZombieObject
 90
      499
 91
      502
 93
      249
310
90D312F363422203D2031272D3022000000000000240FC000000000000284000
  0
ACAD_PROXY_OBJECT
  5
5D5
102
{ACAD_REACTORS
330
5C1
102
}
330
5C1
100
AcDbZombieObject
 90
      499
 91
      502
 93
      249
310
90D312F333222203D2031272D3022000000000000280FC000000000000284000
  0
ACAD_PROXY_OBJECT
  5
5D6
102
{ACAD_REACTORS
330
5C1
102
}
330
5C1
100
AcDbZombieObject
 90
      499
 91
      502
 93
      249
310
90D312F313622203D2031272D30220000000000002C0FC000000000000284000
  0
ACAD_PROXY_OBJECT
  5
5D7
102
{ACAD_REACTORS
330
5C1
102
}
330
5C1
100
AcDbZombieObject
 90
      499
 91
      502
 93
      249
310
90D332F333222203D2031272D30220000000000002E0FC000000000000284000
  0
ACAD_PROXY_OBJECT
  5
5D8
102
{ACAD_REACTORS
330
5C1
102
}
330
5C1
100
AcDbZombieObject
 90
      499
 91
      502
 93
      241
310
90C312F3822203D2031272D3022000000000000300FC000000000000284000
  0
ACAD_PROXY_OBJECT
  5
5D9
102
{ACAD_REACTORS
330
5C1
102
}
330
5C1
100
AcDbZombieObject
 90
      499
 91
      502
 93
      249
310
90D332F313622203D2031272D3022000000000000320FC000000000000284000
  0
ACAD_PROXY_OBJECT
  5
5DA
102
{ACAD_REACTORS
330
5C1
102
}
330
5C1
100
AcDbZombieObject
 90
      499
 91
      502
 93
      241
310
90C312F3422203D2031272D3022000000000000340FC000000000000284000
  0
ACAD_PROXY_OBJECT
  5
5DB
102
{ACAD_REACTORS
330
5C1
102
}
330
5C1
100
AcDbZombieObject
 90
      499
 91
      502
 93
      241
310
90C332F3822203D2031272D3022000000000000360FC000000000000284000
  0
ACAD_PROXY_OBJECT
  5
5DC
102
{ACAD_REACTORS
330
5C1
102
}
330
5C1
100
AcDbZombieObject
 90
      499
 91
      502
 93
      241
310
90C312F3222203D2031272D3022000000000000380FC000000000000284000
  0
ACAD_PROXY_OBJECT
  5
5DD
102
{ACAD_REACTORS
330
5C1
102
}
330
5C1
100
AcDbZombieObject
 90
      499
 91
      502
 93
      241
310
90C332F3422203D2031272D30220000000000003A0FC000000000000284000
  0
ACAD_PROXY_OBJECT
  5
5DE
102
{ACAD_REACTORS
330
5C1
102
}
330
5C1
100
AcDbZombieObject
 90
      499
 91
      502
 93
      161
310
90A3122203D2031272D30224000000000000284000
  0
ACAD_PROXY_OBJECT
  5
5DF
102
{ACAD_REACTORS
330
5C1
102
}
330
5C1
100
AcDbZombieObject
 90
      499
 91
      502
 93
      257
310
90E312D312F3222203D2031272D30220000000000003E0FC000000000000284000
  0
ACAD_PROXY_OBJECT
  5
5E0
102
{ACAD_REACTORS
330
5C1
102
}
330
5C1
100
AcDbZombieObject
 90
      499
 91
      502
 93
      225
310
90A3322203D2031272D302200000000000002100000000000000284000
  0
ACAD_PROXY_OBJECT
  5
5E1
102
{ACAD_REACTORS
330
5C1
102
}
330
5C1
100
AcDbZombieObject
 90
      499
 91
      502
 93
      225
310
90A3622203D2031272D302200000000000006100000000000000284000
  0
ACAD_PROXY_OBJECT
  5
5E2
102
{ACAD_REACTORS
330
5C1
102
}
330
5C1
100
AcDbZombieObject
 90
      499
 91
      502
 93
      249
310
90D31272D3022203D2031272D30220000000000000A100000000000000284000
  0
ACAD_PROXY_OBJECT
  5
2F
102
{ACAD_REACTORS
330
2A
102
}
330
2A
100
AcDbZombieObject
 90
      499
 91
      501
 93
      436
310
42CC9915DA5C99599C985B595049028333333333333E3BF0000000000000FB0107901411070040501600405405064090741402480A0340
1001
ACAD
1000
AcDbSavedByObjectVersion
1070
     0
  0
ACAD_PROXY_OBJECT
  5
31
102
{ACAD_REACTORS
330
2A
102
}
330
2A
100
AcDbZombieObject
 90
      499
 91
      501
 93
      500
310
424CD108121A5919195B90640502408333333333333E3BF0000000000000FB01079024090700405020000000000001110200405405064090740C02480A0340
1001
ACAD
1000
AcDbSavedByObjectVersion
1070
     0
  0
ACAD_PROXY_OBJECT
  5
30
102
{ACAD_REACTORS
330
2A
102
}
330
2A
100
AcDbZombieObject
 90
      499
 91
      501
 93
      436
310
42CCD915DA5C99599C985B595059028333333333333E3BF0000000000000FB0107901411070040501600405405064090741402480A0340
1001
ACAD
1000
AcDbSavedByObjectVersion
1070
     0
  0
ACAD_PROXY_OBJECT
  5
32
102
{ACAD_REACTORS
330
2A
102
}
330
2A
100
AcDbZombieObject
 90
      499
 91
      501
 93
      388
310
4150985CDA58D07406404333333333333E3BF0000000000000FB0107A41107004050150841D405064090741402480A0350
1001
ACAD
1000
AcDbSavedByObjectVersion
1070
     0
  0
ACAD_PROXY_OBJECT
  5
36
102
{ACAD_REACTORS
330
2A
102
}
330
2A
100
AcDbZombieObject
 90
      499
 91
      501
 93
      428
310
42109C9A59DA1D195B90C409028333333333333E3BF0000000000000FB010790141107004050150841D405064090741402480A029950
1001
ACAD
1000
AcDbSavedByObjectVersion
1070
     0
  0
ACAD_PROXY_OBJECT
  5
3A
102
{ACAD_REACTORS
330
2A
102
}
330
2A
100
AcDbZombieObject
 90
      499
 91
      501
 93
      452
310
42D0DBDB1BDC90DA185B99D95104090240C333333333333E3BF0000000000000FB0108901411070040501508421405064090741402480A0350
1001
ACAD
1000
AcDbSavedByObjectVersion
1070
     0
  0
ACAD_PROXY_OBJECT
  5
34
102
{ACAD_REACTORS
330
2A
102
}
330
2A
100
AcDbZombieObject
 90
      499
 91
      501
 93
      500
310
4290DBDB98D95C1D1D585B10940D028333333333333E3BF0000000000000FB0107902409070040501000000000000111010841D405064090740C02480A0340
1001
ACAD
1000
AcDbSavedByObjectVersion
1070
     0
  0
ACAD_PROXY_OBJECT
  5
35
102
{ACAD_REACTORS
330
2A
102
}
330
2A
100
AcDbZombieObject
 90
      499
 91
      501
 93
      412
310
40D11A5B50B409028333333333333E3BF0000000000000FB010790141107004050150841D405064090741402480A02677FFFFFD0
1001
ACAD
1000
AcDbSavedByObjectVersion
1070
     0
  0
ACAD_PROXY_OBJECT
  5
39
102
{ACAD_REACTORS
330
2A
102
}
330
2A
100
AcDbZombieObject
 90
      499
 91
      501
 93
      444
310
42D19858D95C185D1D195C9B90F409028333333333333E3BF0000000000000FB010790141107004050150841D405064090741402480A0350
1001
ACAD
1000
AcDbSavedByObjectVersion
1070
     0
  0
ACAD_PROXY_OBJECT
  5
2B
102
{ACAD_REACTORS
330
2A
102
}
330
2A
100
AcDbZombieObject
 90
      499
 91
      501
 93
      388
310
41119B185D240901404333333333333E3BF0000000000000F9010740A41107004050150841D405064090741402480A1B50
1001
ACAD
1000
AcDbSavedByObjectVersion
1070
     0
  0
ACAD_PROXY_OBJECT
  5
2C
102
{ACAD_REACTORS
330
2A
102
}
330
2A
100
AcDbZombieObject
 90
      499
 91
      501
 93
      476
310
43519B185D15DA5D1A115919D95CD0140901404333333333333E3BF0000000000000F9010740901411070040501600405405064090741402480A1B50
1001
ACAD
1000
AcDbSavedByObjectVersion
1070
     0
  0
ACAD_PROXY_OBJECT
  5
2D
102
{ACAD_REACTORS
330
2A
102
}
330
2A
100
AcDbZombieObject
 90
      499
 91
      501
 93
      412
310
41D1DBDD5C985D5910240902404333333333333E3BF0000000000000F9010740A411070040501641D405064090741402480A1B50
1001
ACAD
1000
AcDbSavedByObjectVersion
1070
     0
  0
ACAD_PROXY_OBJECT
  5
2E
102
{ACAD_REACTORS
330
2A
102
}
330
2A
100
AcDbZombieObject
 90
      499
 91
      501
 93
      500
310
4411DBDD5C985D5915DA5D1A115919D95CD0340902404333333333333E3BF0000000000000F9010740901411070040501600405405064090741402480A1B50
1001
ACAD
1000
AcDbSavedByObjectVersion
1070
     0
  0
ACAD_PROXY_OBJECT
  5
38
102
{ACAD_REACTORS
330
2A
102
}
330
2A
100
AcDbZombieObject
 90
      499
 91
      501
 93
      444
310
42D31A5B995C185D1D195C9B90E409028333333333333E3BF0000000000000FB010790141107004050750841D405064090741402483A0350
1001
ACAD
1000
AcDbSavedByObjectVersion
1070
     0
  0
ACAD_PROXY_OBJECT
  5
33
102
{ACAD_REACTORS
330
2A
102
}
330
2A
100
AcDbZombieObject
 90
      499
 91
      501
 93
      420
310
425499585B1A5CDD1A58D08409028333333333333E3BF0000000000000FB01079019070040501508421405064090741402480A1B40
1001
ACAD
1000
AcDbSavedByObjectVersion
1070
     0
  0
ACAD_PROXY_OBJECT
  5
37
102
{ACAD_REACTORS
330
2A
102
}
330
2A
100
AcDbZombieObject
 90
      499
 91
      501
 93
      412
310
41D51A1A58DAD95B90D409028333333333333E3BF0000000000000FB010790141107004050150C41D405064090741402480A0350
1001
ACAD
1000
AcDbSavedByObjectVersion
1070
     0
  0
DICTIONARYVAR
  5
60A
102
{ACAD_REACTORS
330
605
102
}
330
605
100
DictionaryVariables
280
     0
  1
1:1
  0
DICTIONARYVAR
  5
609
102
{ACAD_REACTORS
330
605
102
}
330
605
100
DictionaryVariables
280
     0
  1
80.000000
  0
DICTIONARYVAR
  5
608
102
{ACAD_REACTORS
330
605
102
}
330
605
100
DictionaryVariables
280
     0
  1
5.000000
  0
ENDSEC
  0
EOF
